PrimaNota.ru - самый крупный в мире бесплатный архив песенных текстов, аккордов, табулатур и нот


Stone Sour - Digital - текст песни, таба, видео

Регистрация Запомнить меня
Войти через:  Facebook Google Twitter Vk Yandex Mail.ru

Stone Sour - Digital - текст песни, таба, видео

Печатать
Просмотров: 83
STONE SOUR - DIGITAL (AUDIO SECRECY, 2010)


TUNING: DROP C (C G C F A d)





::GUITAR 1::


INTRO X2
d|-------------------------------|--------------------------------|
A|-------------------------------|--------------------------------|
F|---------7/9-7----------7/9-10-|---------7/9-7----------12/9-7--|
C|-------------------------------|--------------------------------|
G|---------5/7-5----------5/7-8--|---------5/7-5----------10/7-5--|
C|-0-0-0-0--------0-0-0-0--------|-0-0-0-0--------0-0-0-0---------|

d|-------------------------------------------------|---------------------------------------------|
A|-------------------------------------------------|---------------------------------------------|
F|-17-17-17-17-17-17-17-17-15-15-15-15-14-14-14-14-|-12-12-12-12-12-12-12-12-10-10-10-10-9-9-9-9-|
C|-------------------------------------------------|---------------------------------------------|
G|-15-15-15-15-15-15-15-15-13-13-13-13-12-12-12-12-|-10-10-10-10-10-10-10-10-8--8--8--8--7-7-7-7-|
C|-------------------------------------------------|---------------------------------------------|


VERSE X4
d|------------------------------------|------------------------------------|
A|------------------------------------|------------------------------------|
F|------------------------------------|------------------------------------|
C|---------7-7-7-7--10-10-10-10-6-6-6-|---------7-7-7-7--12-12-12-12-9-9-9-|
G|---------5-5-5-5--8--8--8--8--4-4-4-|---------5-5-5-5--10-10-10-10-7-7-7-|
C|-0-0-0-0----------------------------|-0-0-0-0----------------------------|


CHORUS X2
d|-------------------------------|--------------------------------|
A|-------------------------------|--------------------------------|
F|---------7/9-7----------7-9-10-|---------7/9-7----------12/9-7--|
C|-------------------------------|--------------------------------|
G|---------5/7-5----------5/7-8--|---------5/7-5----------10/7-5--|
C|-0-0-0-0--------0-0-0-0--------|-0-0-0-0--------0-0-0-0---------|

d|-------------------------------------------------|---------------------------------------------|
A|-------------------------------------------------|---------------------------------------------|
F|-17-17-17-17-17-17-17-17-15-15-15-15-14-14-14-14-|-12-12-12-12-12-12-12-12-10-10-10-10-9-9-9-9-|
C|-------------------------------------------------|---------------------------------------------|
G|-15-15-15-15-15-15-15-15-13-13-13-13-12-12-12-12-|-10-10-10-10-10-10-10-10-8--8--8--8--7-7-7-7-|
C|-------------------------------------------------|---------------------------------------------|


BREAK
d|--------------------------------------|
A|--------------------------------------|
F|-------------------------7-9-7--------|
C|------------------7-9-10-------10-9-7-|
G|-----------7-8-10---------------------|
C|-7-9-10-12----------------------------|


VERSE X4
d|------------------------------------|------------------------------------|
A|------------------------------------|------------------------------------|
F|------------------------------------|------------------------------------|
C|---------7-7-7-7--10-10-10-10-6-6-6-|---------7-7-7-7--12-12-12-12-9-9-9-|
G|---------5-5-5-5--8--8--8--8--4-4-4-|---------5-5-5-5--10-10-10-10-7-7-7-|
C|-0-0-0-0----------------------------|-0-0-0-0----------------------------|


CHORUS X2
d|-------------------------------|--------------------------------|
A|-------------------------------|--------------------------------|
F|---------7/9-7----------7/9-10-|---------7/9-7----------12/9-7--|
C|-------------------------------|--------------------------------|
G|---------5/7-5----------5/7-8--|---------5/7-5----------10/7-5--|
C|-0-0-0-0--------0-0-0-0--------|-0-0-0-0--------0-0-0-0---------|

d|-------------------------------------------------|---------------------------------------------|
A|-------------------------------------------------|---------------------------------------------|
F|-17-17-17-17-17-17-17-17-15-15-15-15-14-14-14-14-|-12-12-12-12-12-12-12-12-10-10-10-10-9-9-9-9-|
C|-------------------------------------------------|---------------------------------------------|
G|-15-15-15-15-15-15-15-15-13-13-13-13-12-12-12-12-|-10-10-10-10-10-10-10-10-8--8--8--8--7-7-7-7-|
C|-------------------------------------------------|---------------------------------------------|


BRIDGE X2
d|-------------------------------------------------|-------------------------------------------------|
A|-15-15-15-15-15-15-15-15-13-13-13-13-13-13-13-13-|-10-10-10-10-10-10-10-10-11-11-11-11-10-10-10-10-|
F|-------------------------------------------------|-------------------------------------------------|
C|-12-12-12-12-12-12-12-12-10-10-10-10-10-10-10-10-|-7--7--7--7--7--7--7--7--8--8--8--8--7--7--7--7--|
G|-------------------------------------------------|-------------------------------------------------|
C|-------------------------------------------------|-------------------------------------------------|

d|-------------------------------------------------|--------------------------------|
A|-------------------------------------------------|--------------------------------|
F|-12-12-12-12-12-12-12-12-10-10-10-10-10-10-10-10-|-7-7-7-7-7-7-7-7-9-9-9-9-9-9-9-9|
C|-------------------------------------------------|--------------------------------|
G|-10-10-10-10-10-10-10-10-8--8--8--8--8--8--8--8--|-5-5-5-5-5-5-5-5-7-7-7-7-7-7-7-7|
C|-------------------------------------------------|--------------------------------|


SOLO
d|--------------------------------------|--------------------------------------|
A|--------------------------------------|--------------------------------------|
F|-------14-12--------------------------|-------14-12--------------------------|
C|--------------15-14---------------14--|--------------15-14-------------------|
G|---------------------17-15--14-15-----|---------------------17-15--14-15-12--|
C|-0-0-0--------------------------------|-0-0-0--------------------------------|

d|--------------------------------------|
A|--------------------------------------|
F|-------14-12--------------------------|
C|--------------15-14---------------14--|
G|---------------------17-15--14-15-----|
C|-0-0-0--------------------------------|

d|-------------------------------------------------|-------------------------------------|
A|-------------------------------------------------|-------------------------------------|
F|-10-10-10-10-10-10-10-10-14-14-14-14-12-12-12-12-|-7-7-7-7-7-7-7-7-9-9-9-9-10-10-10-10-|
C|-8--8--8--8--8--8--8--8--12-12-12-12-10-10-10-10-|-5-5-5-5-5-5-5-5-7-7-7-7-8--8--8--8--|
G|-------------------------------------------------|-------------------------------------|
C|-------------------------------------------------|-------------------------------------|

d|--------------------------------------|--------------------------------------|
A|--------------------------------------|--------------------------------------|
F|-------14-12--------------------------|-------14-12--------------------------|
C|--------------15-14---------------14--|--------------15-14-------------------|
G|---------------------17-15--14-15-----|---------------------17-15--14-15-12--|
C|-0-0-0--------------------------------|-0-0-0--------------------------------|

d|--------------------------------------|
A|--------------------------------------|
F|-------14-12--------------------------|
C|--------------15-14---------------14--|
G|---------------------17-15--14-15-----|
C|-0-0-0--------------------------------|

d|---------------------------------|---------------------------------|
A|---------------------------------|---------------------------------|
F|-7-7-7-7-7-7-7-7-5-5-5-5-5-5-5-5-|-9-9-9-9-9-9-9-9-5-5-5-5-4-4-4-4-|
C|-7-7-7-7-7-7-7-7-5-5-5-5-5-5-5-5-|-9-9-9-9-9-9-9-9-5-5-5-5-4-4-4-4-|
G|---------------------------------|---------------------------------|
C|---------------------------------|---------------------------------|

d|----------------------------------------|             }
A|-------16-15----------------------------|             }
F|--------------12-11---------------------|             }
C|---------------------13-12--10-12-13-12-|             } X3
G|----------------------------------------|             }
C|-0-0-0----------------------------------|             }

d|-----------------------5---------|
A|-------------------6-8---8-6-5---|
F|-------------5-7-0-------------7-|
C|-------5-0-8---------------------|
G|---7-8---------------------------|
C|-0-------------------------------|


BRIDGE X2
d|-------------------------------------------------|-------------------------------------------------|
A|-15-15-15-15-15-15-15-15-13-13-13-13-13-13-13-13-|-10-10-10-10-10-10-10-10-11-11-11-11-10-10-10-10-|
F|-------------------------------------------------|-------------------------------------------------|
C|-12-12-12-12-12-12-12-12-10-10-10-10-10-10-10-10-|-7--7--7--7--7--7--7--7--8--8--8--8--7--7--7--7--|
G|-------------------------------------------------|-------------------------------------------------|
C|-------------------------------------------------|-------------------------------------------------|

d|-------------------------------------------------|--------------------------------|
A|-------------------------------------------------|--------------------------------|
F|-12-12-12-12-12-12-12-12-10-10-10-10-10-10-10-10-|-7-7-7-7-7-7-7-7-9-9-9-9-9-9-9-9|
C|-------------------------------------------------|--------------------------------|
G|-10-10-10-10-10-10-10-10-8--8--8--8--8--8--8--8--|-5-5-5-5-5-5-5-5-7-7-7-7-7-7-7-7|
C|-------------------------------------------------|--------------------------------|


CHORUS X2
d|-------------------------------|--------------------------------|
A|-------------------------------|--------------------------------|
F|---------7/9-7----------7/9-10-|---------7/9-7----------12/9-7--|
C|-------------------------------|--------------------------------|
G|---------5/7-5----------5/7-8--|---------5/7-5----------10/7-5--|
C|-0-0-0-0--------0-0-0-0--------|-0-0-0-0--------0-0-0-0---------|

d|-------------------------------------------------|---------------------------------------------|
A|-------------------------------------------------|---------------------------------------------|
F|-17-17-17-17-17-17-17-17-15-15-15-15-14-14-14-14-|-12-12-12-12-12-12-12-12-10-10-10-10-9-9-9-9-|
C|-------------------------------------------------|---------------------------------------------|
G|-15-15-15-15-15-15-15-15-13-13-13-13-12-12-12-12-|-10-10-10-10-10-10-10-10-8--8--8--8--7-7-7-7-|
C|-------------------------------------------------|---------------------------------------------|


OUTRO
d|----------------------------------------|------------------------------------------|
A|----------------------------------------|------------------------------------------|
F|----------------------------------------|------------------------------------------|
C|----------------------------------------|------------------------------------------|
G|-0-2-3-0-8-7-0-10-12-0-15-14-0-10-12-14-|-0-2-3-0-8-7-0-10-12-14-12-10-12-14-12-10-|
C|-0-2-3-0-8-7-0-10-12-0-15-14-0-10-12-14-|-0-2-3-0-8-7-0-10-12-14-12-10-12-14-12-10-|

d|----------------------------------------|
A|----------------------------------------|
F|----------------------------------------|
C|----------------------------------------|
G|-0-2-3-0-8-7-0-10-12-0-15-14-0-10-12-14-|
C|-0-2-3-0-8-7-0-10-12-0-15-14-0-10-12-14-|

d|-------------------------------------------------|---------------------------------------------|
A|-------------------------------------------------|---------------------------------------------|
F|-17-17-17-17-17-17-17-17-15-15-15-15-14-14-14-14-|-12-12-12-12-12-12-12-12-10-10-10-10-9-9-9-9-|
C|-------------------------------------------------|---------------------------------------------|
G|-15-15-15-15-15-15-15-15-13-13-13-13-12-12-12-12-|-10-10-10-10-10-10-10-10-8--8--8--8--7-7-7-7-|
C|-------------------------------------------------|---------------------------------------------|

d|----------------------------------------|------------------------------------------|
A|----------------------------------------|------------------------------------------|
F|----------------------------------------|------------------------------------------|
C|----------------------------------------|------------------------------------------|
G|-0-2-3-0-8-7-0-10-12-0-15-14-0-10-12-14-|-0-2-3-0-8-7-0-10-12-14-12-10-12-14-12-10-|
C|-0-2-3-0-8-7-0-10-12-0-15-14-0-10-12-14-|-0-2-3-0-8-7-0-10-12-14-12-10-12-14-12-10-|

d|----------------------------------------|
A|----------------------------------------|
F|----------------------------------------|
C|----------------------------------------|
G|-0-2-3-0-8-7-0-10-12-0-15-14-0-10-12-14-|
C|-0-2-3-0-8-7-0-10-12-0-15-14-0-10-12-14-|

d|-------------------------------------------------|---------------------------------------------|
A|-------------------------------------------------|---------------------------------------------|
F|-17-17-17-17-17-17-17-17-15-15-15-15-14-14-14-14-|-12-12-12-12-12-12-12-12-10-10-10-10-9-9-9-9-|
C|-------------------------------------------------|---------------------------------------------|
G|-15-15-15-15-15-15-15-15-13-13-13-13-12-12-12-12-|-10-10-10-10-10-10-10-10-8--8--8--8--7-7-7-7-|
C|-------------------------------------------------|---------------------------------------------|

d|-------------------------------|--------------------------------|
A|-------------------------------|--------------------------------|
F|---------7/9-7----------7/9-10-|---------7/9-7----------12/9-7--|
C|-------------------------------|--------------------------------|
G|---------5/7-5----------5/7-8--|---------5/7-5----------10/7-5--|
C|-0-0-0-0--------0-0-0-0--------|-0-0-0-0--------0-0-0-0---------|





::GUITAR 2::


INTRO X2
d|-------------------------------|--------------------------------|
A|-------------------------------|--------------------------------|
F|---------7/9-7----------7/9-10-|---------7/9-7----------12/9-7--|
C|-------------------------------|--------------------------------|
G|---------5/7-5----------5/7-8--|---------5/7-5----------10/7-5--|
C|-0-0-0-0--------0-0-0-0--------|-0-0-0-0--------0-0-0-0---------|

d|---------------------------------------------|---------------------------------|
A|---------------------------------------------|---------------------------------|
F|---------------------------------------------|---------------------------------|
C|-10-10-10-10-10-10-10-10-8-8-8-8-------------|-7-7-7-7-7-7-7-7-----------------|
G|-8--8--8--8--8--8--8--8--8-8-8-8-12-12-12-12-|-5-5-5-5-5-5-5-5-8-8-8-8-7-7-7-7-|
C|-8--8--8--8--8--8--8--8--8-8-8-8-8--8--8--8--|-5-5-5-5-5-5-5-5-5-5-5-5-5-5-5-5-|


VERSE X4
d|------------------------------------|------------------------------------|
A|------------------------------------|------------------------------------|
F|------------------------------------|------------------------------------|
C|---------7-7-7-7--10-10-10-10-6-6-6-|---------7-7-7-7--12-12-12-12-9-9-9-|
G|---------5-5-5-5--8--8--8--8--4-4-4-|---------5-5-5-5--10-10-10-10-7-7-7-|
C|-0-0-0-0----------------------------|-0-0-0-0----------------------------|


CHORUS X2
d|-------------------------------|--------------------------------|
A|-------------------------------|--------------------------------|
F|---------7/9-7----------7/9-10-|---------7/9-7----------12/9-7--|
C|-------------------------------|--------------------------------|
G|---------5/7-5----------5/7-8--|---------5/7-5----------10/7-5--|
C|-0-0-0-0--------0-0-0-0--------|-0-0-0-0--------0-0-0-0---------|

d|---------------------------------------------|---------------------------------|
A|---------------------------------------------|---------------------------------|
F|---------------------------------------------|---------------------------------|
C|-10-10-10-10-10-10-10-10-8-8-8-8-------------|-7-7-7-7-7-7-7-7-----------------|
G|-8--8--8--8--8--8--8--8--8-8-8-8-12-12-12-12-|-5-5-5-5-5-5-5-5-8-8-8-8-7-7-7-7-|
C|-8--8--8--8--8--8--8--8--8-8-8-8-8--8--8--8--|-5-5-5-5-5-5-5-5-5-5-5-5-5-5-5-5-|


BREAK
d|---------------------------------|
A|---------------------------------|
F|---------------------0-2-0-------|
C|---------------0-2-3-------3-2-0-|
G|---------0-1-3-------------------|
C|-0-2-3-5-------------------------|


VERSE X4
d|------------------------------------|------------------------------------|
A|------------------------------------|------------------------------------|
F|------------------------------------|------------------------------------|
C|---------7-7-7-7--10-10-10-10-6-6-6-|---------7-7-7-7--12-12-12-12-9-9-9-|
G|---------5-5-5-5--8--8--8--8--4-4-4-|---------5-5-5-5--10-10-10-10-7-7-7-|
C|-0-0-0-0----------------------------|-0-0-0-0----------------------------|


CHORUS X2
d|-------------------------------|--------------------------------|
A|-------------------------------|--------------------------------|
F|---------7/9-7----------7/9-10-|---------7/9-7----------12/9-7--|
C|-------------------------------|--------------------------------|
G|---------5/7-5----------5/7-8--|---------5/7-5----------10/7-5--|
C|-0-0-0-0--------0-0-0-0--------|-0-0-0-0--------0-0-0-0---------|

d|---------------------------------------------|---------------------------------|
A|---------------------------------------------|---------------------------------|
F|---------------------------------------------|---------------------------------|
C|-10-10-10-10-10-10-10-10-8-8-8-8-------------|-7-7-7-7-7-7-7-7-----------------|
G|-8--8--8--8--8--8--8--8--8-8-8-8-12-12-12-12-|-5-5-5-5-5-5-5-5-8-8-8-8-7-7-7-7-|
C|-8--8--8--8--8--8--8--8--8-8-8-8-8--8--8--8--|-5-5-5-5-5-5-5-5-5-5-5-5-5-5-5-5-|


BRIDGE X2
d|---------------------------------|---------------------------------|
A|---------------------------------|---------------------------------|
F|---------------------------------|---------------------------------|
C|-0-0-0-0-0-0-0-0-2-2-2-2-2-2-2-2-|-3-3-3-3-3-3-3-3-5-5-5-5-2-2-2-2-|
G|-0-0-0-0-0-0-0-0-2-2-2-2-2-2-2-2-|-3-3-3-3-3-3-3-3-5-5-5-5-2-2-2-2-|
C|-0-0-0-0-0-0-0-0-2-2-2-2-2-2-2-2-|-3-3-3-3-3-3-3-3-5-5-5-5-2-2-2-2-|

d|---------------------------------|--------------------------------|
A|---------------------------------|--------------------------------|
F|---------------------------------|--------------------------------|
C|-8-8-8-8-8-8-8-8-8-8-8-8-8-8-8-8-|5-5-5-5-5-5-5-5-5-5-5-5-5-5-5-5-|
G|-8-8-8-8-8-8-8-8-8-8-8-8-8-8-8-8-|5-5-5-5-5-5-5-5-5-5-5-5-5-5-5-5-|
C|-8-8-8-8-8-8-8-8-8-8-8-8-8-8-8-8-|5-5-5-5-5-5-5-5-5-5-5-5-5-5-5-5-|


SOLO
d|-------------------------------|-------------------------------|-------------------------------|
A|-------------------------------|-------------------------------|-------------------------------|
F|-------9-7---------------------|-------9-7---------------------|-------9-7---------------------|
C|------------10-9--7----------9-|------------10-9--7------------|------------10-9--7----------9-|
G|--------------------10--9-10---|--------------------10--9-10-7-|--------------------10--9-10---|
C|-0-0-0-------------------------|-0-0-0-------------------------|-0-0-0-------------------------|

d|-----------------------------------------|---------------------------------|
A|-----------------------------------------|---------------------------------|
F|-----------------------------------------|---------------------------------|
C|-8-8-8-8-8-8-8-8-12-12-12-12-10-10-10-10-|-5-5-5-5-5-5-5-5-7-7-7-7-8-8-8-8-|
G|-8-8-8-8-8-8-8-8-12-12-12-12-10-10-10-10-|-5-5-5-5-5-5-5-5-7-7-7-7-8-8-8-8-|
C|-8-8-8-8-8-8-8-8-12-12-12-12-10-10-10-10-|-5-5-5-5-5-5-5-5-7-7-7-7-8-8-8-8-|

d|-------------------------------|-------------------------------|-------------------------------|
A|-------------------------------|-------------------------------|-------------------------------|
F|-------9-7---------------------|-------9-7---------------------|-------9-7---------------------|
C|------------10-9--7----------9-|------------10-9--7------------|------------10-9--7----------9-|
G|--------------------10--9-10---|--------------------10--9-10-7-|--------------------10--9-10---|
C|-0-0-0-------------------------|-0-0-0-------------------------|-0-0-0-------------------------|

d|-----------------------------------------|---------------------------------|
A|-----------------------------------------|---------------------------------|
F|-----------------------------------------|---------------------------------|
C|-8-8-8-8-8-8-8-8-12-12-12-12-10-10-10-10-|-5-5-5-5-5-5-5-5-7-7-7-7-8-8-8-8-|
G|-8-8-8-8-8-8-8-8-12-12-12-12-10-10-10-10-|-5-5-5-5-5-5-5-5-7-7-7-7-8-8-8-8-|
C|-8-8-8-8-8-8-8-8-12-12-12-12-10-10-10-10-|-5-5-5-5-5-5-5-5-7-7-7-7-8-8-8-8-|

d|--------------------------------|  }
A|-------11-10--------------------|  }
F|--------------7-6---------------|  }
C|-------------------8-7--5-7-8-7-|  } X3
G|--------------------------------|  }
C|-0-0-0--------------------------|  }

d|---------------------------------|
A|---------------------------------|
F|---------------------0-2-0-------|
C|---------------0-2-3-------3-2-0-|
G|---------0-1-3-------------------|
C|-0-2-3-5-------------------------|


BRIDGE X2
d|---------------------------------|---------------------------------|
A|---------------------------------|---------------------------------|
F|---------------------------------|---------------------------------|
C|-0-0-0-0-0-0-0-0-2-2-2-2-2-2-2-2-|-3-3-3-3-3-3-3-3-5-5-5-5-2-2-2-2-|
G|-0-0-0-0-0-0-0-0-2-2-2-2-2-2-2-2-|-3-3-3-3-3-3-3-3-5-5-5-5-2-2-2-2-|
C|-0-0-0-0-0-0-0-0-2-2-2-2-2-2-2-2-|-3-3-3-3-3-3-3-3-5-5-5-5-2-2-2-2-|

d|---------------------------------|--------------------------------|
A|---------------------------------|--------------------------------|
F|---------------------------------|--------------------------------|
C|-8-8-8-8-8-8-8-8-8-8-8-8-8-8-8-8-|5-5-5-5-5-5-5-5-5-5-5-5-5-5-5-5-|
G|-8-8-8-8-8-8-8-8-8-8-8-8-8-8-8-8-|5-5-5-5-5-5-5-5-5-5-5-5-5-5-5-5-|
C|-8-8-8-8-8-8-8-8-8-8-8-8-8-8-8-8-|5-5-5-5-5-5-5-5-5-5-5-5-5-5-5-5-|


CHORUS X2
d|-------------------------------|--------------------------------|
A|-------------------------------|--------------------------------|
F|---------7/9-7----------7/9-10-|---------7/9-7----------12/9-7--|
C|-------------------------------|--------------------------------|
G|---------5/7-5----------5/7-8--|---------5/7-5----------10/7-5--|
C|-0-0-0-0--------0-0-0-0--------|-0-0-0-0--------0-0-0-0---------|

d|---------------------------------------------|---------------------------------|
A|---------------------------------------------|---------------------------------|
F|---------------------------------------------|---------------------------------|
C|-10-10-10-10-10-10-10-10-8-8-8-8-------------|-7-7-7-7-7-7-7-7-----------------|
G|-8--8--8--8--8--8--8--8--8-8-8-8-12-12-12-12-|-5-5-5-5-5-5-5-5-8-8-8-8-7-7-7-7-|
C|-8--8--8--8--8--8--8--8--8-8-8-8-8--8--8--8--|-5-5-5-5-5-5-5-5-5-5-5-5-5-5-5-5-|


OUTRO
d|----------------------------------------|------------------------------------------|
A|----------------------------------------|------------------------------------------|
F|----------------------------------------|------------------------------------------|
C|----------------------------------------|------------------------------------------|
G|-0-2-3-0-8-7-0-10-12-0-15-14-0-10-12-14-|-0-2-3-0-8-7-0-10-12-14-12-10-12-14-12-10-|
C|-0-2-3-0-8-7-0-10-12-0-15-14-0-10-12-14-|-0-2-3-0-8-7-0-10-12-14-12-10-12-14-12-10-|

d|----------------------------------------|
A|----------------------------------------|
F|----------------------------------------|
C|----------------------------------------|
G|-0-2-3-0-8-7-0-10-12-0-15-14-0-10-12-14-|
C|-0-2-3-0-8-7-0-10-12-0-15-14-0-10-12-14-|

d|---------------------------------------------|---------------------------------|
A|---------------------------------------------|---------------------------------|
F|---------------------------------------------|---------------------------------|
C|-10-10-10-10-10-10-10-10-8-8-8-8-------------|-7-7-7-7-7-7-7-7-----------------|
G|-8--8--8--8--8--8--8--8--8-8-8-8-12-12-12-12-|-5-5-5-5-5-5-5-5-8-8-8-8-7-7-7-7-|
C|-8--8--8--8--8--8--8--8--8-8-8-8-8--8--8--8--|-5-5-5-5-5-5-5-5-5-5-5-5-5-5-5-5-|

d|----------------------------------------|------------------------------------------|
A|----------------------------------------|------------------------------------------|
F|----------------------------------------|------------------------------------------|
C|----------------------------------------|------------------------------------------|
G|-0-2-3-0-8-7-0-10-12-0-15-14-0-10-12-14-|-0-2-3-0-8-7-0-10-12-14-12-10-12-14-12-10-|
C|-0-2-3-0-8-7-0-10-12-0-15-14-0-10-12-14-|-0-2-3-0-8-7-0-10-12-14-12-10-12-14-12-10-|

d|----------------------------------------|
A|----------------------------------------|
F|----------------------------------------|
C|----------------------------------------|
G|-0-2-3-0-8-7-0-10-12-0-15-14-0-10-12-14-|
C|-0-2-3-0-8-7-0-10-12-0-15-14-0-10-12-14-|

d|---------------------------------------------|---------------------------------|
A|---------------------------------------------|---------------------------------|
F|---------------------------------------------|---------------------------------|
C|-10-10-10-10-10-10-10-10-8-8-8-8-------------|-7-7-7-7-7-7-7-7-----------------|
G|-8--8--8--8--8--8--8--8--8-8-8-8-12-12-12-12-|-5-5-5-5-5-5-5-5-8-8-8-8-7-7-7-7-|
C|-8--8--8--8--8--8--8--8--8-8-8-8-8--8--8--8--|-5-5-5-5-5-5-5-5-5-5-5-5-5-5-5-5-|

d|-------------------------------|--------------------------------|
A|-------------------------------|--------------------------------|
F|---------7/9-7----------7/9-10-|---------7/9-7----------12/9-7--|
C|-------------------------------|--------------------------------|
G|---------5/7-5----------5/7-8--|---------5/7-5----------10/7-5--|
C|-0-0-0-0--------0-0-0-0--------|-0-0-0-0--------0-0-0-0---------|
Добавлено: 30.05.2016
Другие материалы по этой песне:

Страница создана 23.07.2013
http://primanota.ru/stone-sour/digital-chords.htm
Привет, Гость.
Предлагаем пройти революционный курс по гитаре.
Подарок от PrimaNota.Ru, забирай!