PrimaNota.ru - самый крупный в мире бесплатный архив песенных текстов, аккордов, табулатур и нот


Stone Sour - Get Inside - аккорды и текст, таба, бас-таба, видео

Регистрация Запомнить меня
Войти через:  Facebook Google Twitter Vk Yandex Mail.ru

Stone Sour - Get Inside - аккорды и текст, таба, бас-таба, видео

Печатать
Просмотров: 489
Get Inside
Stone Sour
Get Inside-Stone Sour 
Stone Sour

Drop B:
B F# B E G# C#

< > = Pinch harmonics

Intro:

x3
e-----------------------------------------------------------------
b-----------------------------------------------------------------
g-----------------------------------------------------------------
d-----------------------------------------------------------------
a-----------------------------------------------------------------
d-3-2-1-0-0-0-3-2-1-0-0-0-1-0-1-0-3-2-1-0-0-0-3-2-1-0-0-0--3--6---

then,

e-------------------------------------------------------------------------
b-------------------------------------------------------------------------
g-------------------------------------------------------------------------
d-------------------------------------------------------------------------
a----------------------------------------------------------3--6-----3--2--
d-3-2-1-0-0-0-3-2-1-0-0-0-1-0-1-0-3-2-1-0-0-0-2-1-0-0-0-0--3--6-----3--2--

Fig. 1

e--------------------------------------------------------------------
b--------------------------------------------------------------------
g--------------------------------------------------------------------
d--------------------------------------------------------------------
a-0---0-0--0-6---0-0---0---1p0-1p0--0---0-0--0-6---0-0--0-0----------
d-0---0-0--0-6---0-0---0---1p0-1p0--0---0-0--0-6---0-0--0-0-3h6---

Verses:

e-------------------------------------------------------------------------
b-------------------------------------------------------------------------
g-------------------------------------------------------------------------
d-------------------------------------------------------------------------
a-0--0---0-0-0--0---0--0---0-0-1--4--0--0---0-0-0--0---0--0---0-0-----6-5-
d-0--0---0-0-0--0---0--0---0-0-1--4--0--0---0-0-0--0---0--0---0-0-6-5-----

Pre Chorus:

gtr. 1

e-----------------------------------------------
b-----------------------------------------------
g-----------------------------------------------
d-8---7------8---7-----8---7-------7-----5------
a-6---5------6---5-----6---5-----5---8-7-----
d-----------------------------------------------

gtr. 2

e-----------------------------------------------
b-----------------------------------------------
g-8---7------8---7-----8---7-------9------7-----
d--------------------------------7---10-9----
a-----------------------------------------------
d-----------------------------------------------

gtr. 1

e-----------------------------------------------
b-----------------------------------------------
g-----------------------------------------------
d-8---7------8---7-----8---7-----6-5------------
a-6---5------6---5-----6---5-------------6-5----
d------------------------------------6-5--------

gtr. 2

e-----------------------------------------------
b-----------------------------------------------
g-8---7------8---7-----8---7--------------------
d----------------------------------------6-5----
a--------------------------------6-5------------
d------------------------------------6-5--------

Chorus:

e---------------------------------------------------------------
b---------------------------------------------------------------
g---------------------------------------------------------------
d---------------------------------------------------------------
a-3-5--0----3-0-3-5--0--65-3-0--3-5--0----3-0-3-5--0--65-3-0--
d-3-5--0----3-0-3-5--0--65-3-0--3-5--0----3-0-3-5--0--65-3-0--

Bridge:

pm
e-----------------------------------------------------------------
b-----------------------------------------------------------------
g-----------------------------------------------------------------
d-----------------------------------------------------------------
a-----------------------------------------------------------------
d-5-6-5-0-1-2-3-0-5-6-5-0-1-2-3-0-5-6-5-0-1-2-3-0-5-6-5-0-1-2-3-0-

e-----------------------------------------------------------------
b-----------------------------------------------------------------
g-----------------------------------------------------------------
d-----------------------------------------------------------------
a-5-6-5-0-1-2-3-0-5-6-5-0-1-2-3-0-5-6-5-0-1-2-3-0-5-6-5-0-1-2-3-0-
d-5-6-5-0-1-2-3-0-5-6-5-0-1-2-3-0-5-6-5-0-1-2-3-0-5-6-5-0-1-2-3-0-

Solo:

e-------17h21p17-------------20p17--------------------------------
b----------------22p18-------------22p18--------------------13----
g-17/19----------------19p17-------------19p17-19~~~~-12h14----14-
d-----------------------------------------------------------------
a-----------------------------------------------------------------
d-----------------------------------------------------------------

e-------------------------------
b-------------------------------
g-12-12-12/17-14--14--14--14/---
d-12-12-12/17-14--14--14--------
a-------------------------------
d-------------------------------

e-----------------------------------121415-14151412-------------------------
b-13151312------13151312------121315---------------1312------1213151312-----
g---------141314--------141214-------------------------141314----------1414-
d---------------------------------------------------------------------------
a---------------------------------------------------------------------------
d---------------------------------------------------------------------------

e-------1214151719b~~----------131513---------------12131517/20-23b~~~~~----
b-121315-------------1513121315-------------15121416------------------------
g------------------------------------14-------------------------------------
d--------------------------------------16p0---------------------------------
a---------------------------------------------------------------------------
d---------------------------------------------------------------------------


that's all

*from the official Stone Sour tab book*

trevor jones
timmy91199@yahoo.ca
Добавлено: 04.04.2012
Другие материалы по этой песне:

Страница создана 27.02.2012
http://primanota.ru/stone-sour/get-inside-chords.htm
Привет, Гость.
Предлагаем пройти революционный курс по гитаре.
Подарок от PrimaNota.Ru, забирай!