PrimaNota.ru - самый крупный в мире бесплатный архив песенных текстов, аккордов, табулатур и нот


Stone Sour - Inhale - аккорды и текст, таба, бас-таба, драм-таба, видео

Регистрация Запомнить меня
Войти через:  Facebook Google Twitter Vk Yandex Mail.ru

Stone Sour - Inhale - аккорды и текст, таба, бас-таба, драм-таба, видео

Печатать
Просмотров: 888
Inhale
Stone Sour
Standard Tuning (EADGBE)....This is a great song, I love it. I think this is a
pretty good tab, hit me back and tell me how I did ad Koston40@hotmail.com....
Thanks


Intro Guitar 1
e--------------------------------------------------
B--------------------------------------------------
G--------------------------------------------------
D--------------------------------------------------
A--------9---84----5------------------------------
E--7-----------------------------------------------   x6


Intro Guitar 2
e-----------------------------------------------
B-----------------------------------------------
G-----------7-------9------11-------------------
D----9------7-------9------11-------------------
A----9------5-------7------9--------------------
E----7------------------------------------------x1 Comes in after 3rd time of Guitar 1

Intro Both Guitars 1 & 2
e-------------------------------------------
B-------------------------------------------
G---------11----10------6--------7---------
D---9-----11----10------6--------7---------
A---9-----9-----8-------4--------5---------
E---7--------------------------------------- x4


Verse Part 1 Guitars 1 & 2
e------------------------------------------------------------------
B------------------------------------------------------------------
G------------------------------------------------------------------
D-----9------------------------------9--------5-5-5----4-4-4-------
A-----9------------------------------9--------5-5-5----4-4-4-------
E-----7------------------------------7--------3-3-3----2-2-2------- x3
     Let Ring                                pm  pm  pm pm pm pm 


Verse Part 2 Guitars 1 & 2
e-----------------------------------
B-----------------------------------
G-----------------------------------
D---2-2-2-2-2-2-2-2-----------------
A---2-2-2-2-2-2-2-2-----------------
E---0-0-0-0-0-0-0-0-----------------x4
 pm pm pm pm pm pm pm  On the 4th time, after about 4 strokes, fade out of Palm Mute


Chorus Guitar 1
e-------------------------------------------------
B-------------------------------------------------
G-------------------------------------------------
D-------------------------------------------------
A--------9---84----5-----------------------------
E--7---------------------------------------------- x8

Chorus Guitar 2
e----------------------------------------------
B----------------------------------------------
G-----------7-------9-------11-----------------
D----9------7-------9-------11-----------------
A----9------5-------7-------9------------------
E----7-----------------------------------------x2 I'm sure you guys will figure
                                                        out the rhythm


Verse #2 Part 1 Guitars 1 & 2
e------------------------------------------------------------------
B------------------------------------------------------------------
G------------------------------------------------------------------
D-----9------------------------------9--------5-5-5----4-4-4-------
A-----9------------------------------9--------5-5-5----4-4-4-------
E-----7------------------------------7--------3-3-3----2-2-2------- x3
     Let Ring                                pm  pm  pm pm pm pm  


Verse #2 Part 2 Guitars 1 & 2
e-----------------------------------
B-----------------------------------
G-----------------------------------
D---2-2-2-2-2-2-2-2-----------------
A---2-2-2-2-2-2-2-2-----------------
E---0-0-0-0-0-0-0-0----------------- x4
pm pm pm pm pm pm pm  On the 4th time, after about 4 strokes, fade out of Palm
                                                                    Mute


Chorus# 2 Guitar 1
e-------------------------------------------------
B-------------------------------------------------
G-------------------------------------------------
D-------------------------------------------------
A--------9---84----5-----------------------------
E--7----------------------------------------------   x8


Chorus #2 Guitar 2
e-----------------------------------------------
B-----------------------------------------------
G-----------7-------9-------11------------------
D----9------7-------9-------11------------------
A----9------5-------7-------9-------------------
E----7------------------------------------------ x2 I'm sure you guys will
                                                    figure out the rhythm


After Chorus Guitars 1 & 2
e---------------------------
B---------------------------
G---------------------------
D----9----------------------
A----9----------------------
E----7----------------------
Let it ring for a bit


Bridge Guitars 1 & 2
e-------------------------------------------
B-------------------------------------------
G-------------------------------------------
D--5-5-5-------7-7-7------------------------
A--5-5-5-------7-7-7------------------------
E--3-3-3-------5-5-5------------------------x1


Bridge Guitars 1 & 2
e-------------------------------------------
B-------------------------------------------
G-------------------------------------------
D----2----------------5-5-5-5--/7-7-7-7-7---
A----2----------------5-5-5-5-/-7-7-7-7-7---
E----0----------------3-3-3-3-/-5-5-5-5-5---x1


Bridge Guitars 1 & 2
e--------------------------------------------
B--------------------------------------------
G--------------------------------------------
D----2----------------5-5-5-----7-7-7--------
A----2----------------5-5-5-----7-7-7--------
E----0----------------3-3-3-----5-5-5--------x1


Bridge Guitars 1 & 2
e-------------------------------------------
B-------------------------------------------
G-------------------------------------------
D----2----------------5-5-5-5--/7-7-7-7-7---
A----2----------------5-5-5-5-/-7-7-7-7-7---
E----0----------------3-3-3-3-/-5-5-5-5-5---x1


Bridge Guitars 1 & 2
e-----------------------------------------
B-----------------------------------------
G-----------------------------------------
D----2----------------2-2-2-2-2-2-2-2-2---
A----2----------------2-2-2-2-2-2-2-2-2---
E----0----------------0-0-0-0-0-0-0-0-0---x1
 Let ring for a bit   pm pm pm pm pm pm pm pm 


Chorus #3 Guitar 1
e-------------------------------------------------
B-------------------------------------------------
G-------------------------------------------------
D-------------------------------------------------
A--------9---84----5-----------------------------
E--7----------------------------------------------   x16


Chorus #3 Guitar 2
e--------------------------------------|----------
B--------------------------------------|----------
G-----------7-------9-------11---------|-11-11-11-
D----9------7-------9-------11---------|-11-11-11-
A----9------5-------7-------9----------|-9--9--9--
E----7---------------------------------|----------x4 I'm sure you guys will
                                                     figure out the rhythm



Outro Both Guitars 1 & 2
e---------------------------------------------
B---------------------------------------------
G---------11----10------6--------7----------
D---9-----11----10------6--------7-----------
A---9-----9-----8-------4--------5----------
E---7----------------------------------------- x4


Outro Both Guitars 1 & 2
e-----
B-----
G-----
D---9-
A---9-
E---7-
           Let it ring


well thats it, i hope you like it
Добавлено: 01.03.2012
Другие материалы по этой песне:

Страница создана 01.03.2012
http://primanota.ru/stone-sour/inhale-chords.htm
Привет, Гость.
Предлагаем пройти революционный курс по гитаре.
Подарок от PrimaNota.Ru, забирай!