PrimaNota.ru - самый крупный в мире бесплатный архив песенных текстов, аккордов, табулатур и нот


Stone Sour - Sadist - аккорды и текст, видео

Регистрация Запомнить меня
Войти через:  Facebook Google Twitter Vk Yandex Mail.ru

Stone Sour - Sadist - аккорды и текст, видео

Печатать
Просмотров: 148
Sadist
Stone Sour
This is an acoustic version of Sadist by Stone Sour. There are some passages where you will need to listen to
the song in order to get the rhythm, but that shouldn't be too hard. Also this is my first tab, so some things
might not be correct.
The power chords used in the Verses can be substituted for minor chords, depending on your voice, and if you
want to sing it heavier or softer.

Chords used:

    D#m    B5    A#5    F#5    Dsus2    Csus2    Bsus2    E5    F5    G#5    G#m    A#
E|--6------x------x------x------5--------3--------2-------x-----x-----x-------4-----1--|
B|--7------x------x------x------5--------3--------2-------x-----x-----x-------4-----3--|
G|--8------x------x------x------7--------5--------4-------10----11----13------4-----3--|
D|--8------9------8------4------7--------5--------4-------10----11----13------6-----3--|
A|--6------9------8------4------5--------3--------2-------8-----9-----11------6-----1--|
E|--x------7------6------2------x--------x--------x-------x-----x-----x-------4-----1--|



Intro Riff:

E|-----------------------------------|-----------------------------------|
B|-----------------------------------|-----------------------------------|
G|-----------------------------------|-----------------------------------|
D|-----------------------------------|---------------------4~~~~~~~------|
A|6~~~~~~~~~~~~~~2~~~~~4~~~~~~~2~~~~~|6~~~~~~~~~~~~~~2~~~~~--------2~~~~~|
E|-----------------------------------|-----------------------------------|


E|-----------------------------------|-----------------------------------|
B|-----------------------------------|-----------------------------------|
G|-----------------------------------|-----------------------------------|
D|-----------------------------------|-----------------------------------|
A|6~~~~~~~~~~~~~~2~~~~~4~~~~~~~2~~~~~|1~~~~~~~~~~~~~~~~------------------|
E|-----------------------------------|-----------------2~~~~~~~~~~~~~~~~~|



Verse:
          D#m                    B5
Withering eyes catch you as you fall

         D#m
A bitter sigh...

               B5
No one knows at all

           D#m
Let me in...

                     B5  
For one more long disgrace

        A#5
Just forget...

                      F#5
The same distractions you refuse to face



Pre-Chorus:
D#m                 Dsus2
We both know that it's gone

    Csus2 
But what if no one knows...

Bsus2                              D#5      D#5/E/F5 - G#5
No one knows to remember why it's wrong?

E5              D#5    E5      D#5          D#5/E/F5 - G#5
This is all the pain a man can take

E5            D#5    E5    D#m    B   
This is how a broken heart still breaks



Chorus:
B
I don't need much to show you

D#m
Only enough to control you

B
Bury your head inside this

D#m
And gather the darkness that binds it

G#m
I think I'll die if you deny me

D#m
Swallowed alive in eternity

G#m                     A#
Give me a way to be the agony

A#                D#m
That knew you all along



Verse:
D#m                                B5
Push it down and hide me from this waste

           D#m
Don't hold back...

                 B5
I'd kill to take your place

          D#5
Tell me a lie...

                  B5
Tell me you don't care

        A#5
Just forget... A storm is coming

F#5
Just forget your skin



Pre-Chorus:
D#m                 Dsus2
We both know how this ends

    Csus2 
But what if no one knows...

Bsus2                              D#5      D#5/E/F5 - G#5
No one knows how to kill us in the end?

E5              D#5      E5      D#5        D#5/E/F5 - G#5
This is all you need for who you are

E5            D#5      E5   D#5  B
This is how a good man goes too far...



Chorus:
B
I don't need much to show you

D#m
Only enough to control you

B
Bury your head inside this

D#m
And gather the darkness that binds it

G#m
I think I'll die if you deny me

D#m
Swallowed alive in eternity

G#m                     A#
Give me a way to be the agony

A#                
That knew you all along



Interlude/Solo:
> The following Riff starts on "along" of the previous Chorus:
> (This is where the solo plays in the original recording. That means in the original it is played more often
> than two times. But as this is an acoustic version I will cut it to only two repetitions. How often you
> want to play it is up to you.) 

E|-----------------------------------|-----------------------------------|   
B|-----------------------------------|-----------------------------------|    
G|8~~-8--8--8~~-8--8-----8--8--8-----|8~~-8--8--8~~-8--8--8--12-11-------|    2x
D|8~~-8--8--8~~-8--8-----8--8--8-----|8~~-8--8--8~~-8--8--8--12-11--9/8--|    * = Palm muted 
A|6~~-6--6--6~~-6--6--6--6--6--6--6h7|6~~-6--6--6~~-6--6--6--10--9--9/8--|      
E|----*--*------*--*-----------------|----*--*------*--*--*---------7/6--|   

> And then this (listen to the song for the strumming rhythm):

D#5 - D#5/E/F5 - G#5 - E5 - D#5 - E5 - D#5 

D#5 - D#5/E/F5 - G#5



Pre-Chorus:
E5              D#5    E5      D#5        D#5/E/F5 - G#5
This is all the pain a man can take!

E5              D#5      E5  D#5  B
This is how the blackest circle breaks



Chorus:
B
I don't need much to show you

D#m
Only enough to control you

B
Bury your head inside this

D#m
And gather the darkness that binds it

G#m
I think I'll die if you deny me

D#m
Swallowed alive in eternity

G#m                     A#
Give me a way to be the agony

A#                
That knew you all along



Outro - 2x:
(starts on "along" of the previous Chorus)
E|-----------------------------------|-----------------------------------|
B|-----------------------------------|---------------------7~~~~~~~------|
G|8~~~~~~~~~~~~~~4~~~~~6~~~~~~~4~~~~~|8~~~~~~~~~~~~~~4~~~~~6~~~~~~~4~~~~~|
D|8~~~~~~~~~~~~~~4~~~~~6~~~~~~~4~~~~~|8~~~~~~~~~~~~~~4~~~~~4~~~~~~~4~~~~~|
A|6~~~~~~~~~~~~~~2~~~~~4~~~~~~~2~~~~~|6~~~~~~~~~~~~~~2~~~~~--------2~~~~~|
E|-----------------------------------|-----------------------------------|


E|-----------------------------------|-----------------------------------|
B|-----------------------------------|-----------------------------------|
G|8~~~~~~~~~~~~~~4~~~~~6~~~~~~~4~~~~~|3~~~~~~~~~~~~~~~~------------------|
D|8~~~~~~~~~~~~~~4~~~~~6~~~~~~~4~~~~~|3~~~~~~~~~~~~~~~~4~~~~~~~~~~~~~~~~~|
A|6~~~~~~~~~~~~~~2~~~~~4~~~~~~~2~~~~~|1~~~~~~~~~~~~~~~~4~~~~~~~~~~~~~~~~~|
E|-----------------------------------|-----------------2~~~~~~~~~~~~~~~~~|
                                                     I knew you all along!
Добавлено: 21.06.2016
Другие материалы по этой песне:

Страница создана 14.06.2013
http://primanota.ru/stone-sour/sadist-chords.htm
Привет, Гость.
Предлагаем пройти революционный курс по гитаре.
Подарок от PrimaNota.Ru, забирай!