PrimaNota.ru - самый крупный в мире бесплатный архив песенных текстов, аккордов, табулатур и нот


Steve Vai - All About Eve - текст песни, таба, видео

Регистрация Запомнить меня
Войти через:  Facebook Google Twitter Vk Yandex Mail.ru

Steve Vai - All About Eve - текст песни, таба, видео

Печатать
Просмотров: 196
Уроки эстрадного вокала в Санкт-Петербурге
ALL ABOUT EVE
 
As recorded by Steve Vai
 
(From the 1996 Album FIRE GARDEN)
 
Tablature (Tab) for Guitar
 
Transcribed by Doetje2
 




Gtr I (C G C F A D) - 'Untitled'

 Gtr II (C G C F A D) - 'Untitled'

 Gtr III (C G C F A D) - 'Untitled'

 Gtr IV (C G C F A D) - 'Untitled'

 


 Intro
  Q=131
                                    Cadd2/G            D9/F#
 4/4
  Gtr I
                                             |---3---|
  H     a  H       +Q.    E  H      H       +E   E   E Q     +W
|---------------|-----------------|------------------------|------------------|
|---------------|-----------------|------------------------|------------------|
|------14s17----|-(17)s==14s12s===|=9-------(9)s10s==9s7---|-(7)s=============|
|---------------|-----------------|------------------------|------------------|
|---------------|-----------------|------------------------|------------------|
|---------------|-----------------|------------------------|------------------|
|
| Gtr II
| W                 W               E E E E +E     E   E E    E  Q  E E E E E
|---------------|-----------------|-------0-(0)------------|-----0--------0---|
|---------------|-----------------|-----3----------3-------|--3-----3-------3-|
|---------------|-----------------|---5------------------5-|----------5-------|
|---------------|-----------------|-5------------------4---|------------4-----|
|---------------|-----------------|------------------------|------------------|
|---------------|-----------------|------------------------|------------------|


  Fmaj7sus4     C7/E                       Fsus4         Ebmaj9/Bb
  Q   E E +Q     Q      +W                  +W                 +W
|--------------------|-------------------|------------------|---------||
|--------------------|-------------------|------------------|---------||
|-5---7s9-(9)s==12---|-(12)--------------|-(12)-------------|-(12)----||
|--------------------|-------------------|------------------|---------||
|--------------------|-------------------|------------------|---------||
|--------------------|-------------------|------------------|---------||
|
| E E E E +E  E  E E     E  Q  E E E E E     E  E E E Q  Q     +W
|-------0-(0)--------|------0--------0---|----------1----1--|--(1)----||
|-----1-------1------|---1-----1-------1-|--------1------3--|--(3)----||
|---3--------------3-|-----------3-------|------3--------3--|--(3)----||
|-3--------------2---|-------------2-----|---3-----------1--|--(1)----||
|--------------------|-------------------|---------------1--|--(1)----||
|--------------------|-------------------|------------------|---------||


 Verse
  C5             G/B                 F5/C        Ebadd6add9/Bb
  Gtr II
  Q  Q  Q  E E   E E E E +E  E E E   Q.   E Q  E E   +Q   Q  E E Q
|-------3----3-|-------3-(3)-------|---------------|------1----------|
|-------3------|-----3-------3-----|---------------|---------1-------|
|----0-----0---|---0-----------0---|-5----5------3-|-(3)-------3-3s==|
|--------------|-------------------|-3----3------1-|-(1)---------1s==|
|-3------------|-2-----------------|-3----3------1-|-(1)---------1s==|
|--------------|-------------------|---------------|-----------------|


  Gbadd6add9/DbE/B        F#m7add4/A#
  Q  E E E Q   E   +H      Q.   E
|----4---------0-|-(0)----^0------|
|------4-------0-|-(0)----^0------|
|-6------5-----1-|-(1)----^2------|
|-4--------6\--2-|-(2)----^4------|
|-4------------2-|-(2)----^0----0-|
|----------------|----------------|


          E/B    Fmaj7b5                   G
  E E E E H      Q.   E E E Q    +E  E Q   Q  Q
|-0------------|------------0--|-(0)-------------|
|---0-----0----|------0--------|-----0--------0--|
|---------1----|-2------2------|-------2/--4-----|
|-----0h2-2----|-3--------3----|-----------5-----|
|-----0h2------|-3-------------|-----------5-----|
|--------------|-3-------------|-----------5-----|


  A         Fmaj9/C               Cadd2/G       D9/F#
  Q.   E Q  Q    +Q   Q  E E Q    E E E E +E  E E E
|--------------|------3---------|-------0-(0)-------|
|--------0-----|---------5------|-----3-------3-----|
|-6------0--5--|-(5)-------5----|---5-------------5-|
|-7----7----3--|-(3)---------3--|-5-------------4---|
|-7---------3--|-(3)------------|-------------------|
|-7------------|----------------|-------------------|


                   Cadd2/G       D9/F#
  E Q  E E E E E   E E E E +E  E E E
|---0--------0---|-------0-(0)-------|
|-3----3-------3-|-----3-------3-----|
|--------5-------|---5-------------5-|
|----------4-----|-5-------------4---|
|----------------|-------------------|
|----------------|-------------------|


                   Fmaj7sus4     C7/E
  E Q  E E E E E   E E E E +E  E E E   E Q  E E E E E
|---0--------0---|-------0-(0)-------|---0--------0---|
|-3----3-------3-|-----1-------1-----|-1----1-------1-|
|--------5-------|---3-------------3-|--------3-------|
|----------4-----|-3-------------2---|----------2-----|
|----------------|-------------------|----------------|
|----------------|-------------------|----------------|


  Fsus4      Ebmaj9
                  6/4
  E E E E Q   Q    +W         +Q   Q
|-------1----^1--|-(1)--------(1)------||
|-----1------^3--|-(3)--------(3)------||
|---3--------^3--|-(3)--------(3)------||
|-3----------^1--|-(1)--------(1)------||
|------------^1--|-(1)--------(1)------||
|------------^1--|-(1)--------(1)------||


 Verse
  C5              G/B                Fadd6add9   Ebadd6add9
 4/4
  Q  E E Q  E E   E E E E +E  E Q    Q.   E Q  E E   +Q   Q  E E Q
|--------3----3-|-------3-(3)------|-3-------------|------1-----------|
|------3--------|-----3-------3----|-3-------------|---------1--------|
|----0------0---|---0-----------0--|-5----5------3-|-(3)-------3-3/---|
|---------------|------------------|-3----3------1-|-(1)---------1/---|
|-3-------------|-2----------------|-3----3------1-|-(1)---------1/---|
|---------------|------------------|-3----3------1-|-(1)---------1/---|


  Gbadd6add9   E          Dmaj7    Dadd6addE      Fb5
  Q  E E E Q   E   +H     Q.   E   E E E E H      Q.   E E E Q
|----4---------0-|-(0)----0------|-0------------|---------------|
|------4-------0-|-(0)----0------|---0-----0----|------0--------|
|-6------5-----1-|-(1)----2------|---------1----|-2------2------|
|-4--------6\--2-|-(2)----4----4-|-----0h2-2----|-3--------3----|
|-4------------2-|-(2)----0----0-|-----0h2-2----|-3----------3--|
|-4--------------|---------------|-----0h2-2----|-3-------------|


         G      Aadd2  A9 Fmaj9
  E E Q  H      Q.   E Q  Q    +Q   Q  E E E E
|-------------|-0---------3--|-(3)--3----------||
|---0---------|-0------0--5--|-(5)-----5-------||
|-2---2--4----|-6------6--5--|-(5)-------5-----||
|--------5----|-7----7-5--3--|-(3)---------3h5-||
|--------5----|-7------------|-----------------||
|--------5----|-7------------|-----------------||


 Pre-Chorus
  Cadd2/G       D9/F#                  Cadd2/G       D9/F#
  E E E E +E  E E E   E Q  E E E E E   E E E E +E  E E E   E Q  E E E Q
|-------0-(0)-------|---0--------0---|-------0-(0)-------|---0--------0--|
|-----3-------3-----|-3----3-------3-|-----3-------3-----|-3----3--------|
|---5-------------5-|--------5-------|---5-------------5-|--------5------|
|-5-------------4---|----------4-----|-5-------------4---|----------4----|
|-------------------|----------------|-------------------|---------------|
|-------------------|----------------|-------------------|---------------|


  Fmaj7sus4     C7/E                   Fsus4      Ebmaj9
  E E E E +E  E E E   E Q  E E E E E   E E E E Q   Q
|-------0-(0)-------|---0--------0---|-------1-----1--|
|-----1-------1-----|-1----1-------1-|-----1-------3--|
|---3-------------3-|--------3-------|---3---------3--|
|-3-------------2---|----------2-----|-3-----------1--|
|-------------------|----------------|-------------1--|
|-------------------|----------------|-------------1--|
|
| Gtr I
|                                                  ~~~~
| W                   W                H       Q   Q
|-------------------|----------------|----------------|
|-------------------|----------------|----------------|
|-------------------|----------------|------------10--|
|-------------------|----------------|----------------|
|-------------------|----------------|----------------|
|-------------------|----------------|----------------|
|
| Gtr III
| W                   W                W
|-------------------|----------------|----------------|
|-------------------|----------------|----------------|
|-------------------|----------------|----------------|
|-------------------|----------------|----------------|
|-------------------|----------------|----------------|
|-------------------|----------------|----------------|


   +H.      +E  E     E  E E E +Q    E  E
|--(1)------(1)---|------1---1-(1)--------||
|--(3)------(3)-3-|---3----3-3-(3)---3----||
|--(3)------(3)---|----------3-(3)--------||
|--(1)------(1)---|----------1-(1)--------||
|--(1)------(1)---|-----------------------||
|--(1)------(1)---|-----------------------||
|
|~~~~~~~~~~~~~~~~~~~~~~~~
|  +W                +H.             Q
|-----------------|-----------------------||
|-----------------|-----------------------||
|-(10)------------|-(10)------------------||
|-----------------|-----------------------||
|-----------------|-----------------------||
|-----------------|-----------------------||
|
|   W                 H         Q    Q
|-----------------|-----------------------||
|-----------------|-----------------------||
|-----------------|-----------------------||
|-----------------|-----------------------||
|-----------------|-----------------------||
|-----------------|-----------------12\---||


 Chorus
  D             E7/D               Fmaj7sus2     D5E5F5D5G5 F5E5
  Gtrs II, III
  H    Q.   E   E E E E +Q   Q     Q.   E H      E E E E Q  E E
|------5------|-------0-(0)------|-0------0----|-----------------|
|------7------|-----5------------|-1------1----|-----------------|
|------7------|---7----------7\--|-0------0----|-----------------|
|-----------0-|-6----------------|-3----3-3----|-----------------|
|-------------|------------------|-------------|-0-2-3-0S5--3-2--|
|-0-----------|------------------|-------------|-0-2-3-0S5--3-2--|


  D              E7/D               Am11              Am11/F#Am11/D
  Gtr II
  E E E E H      E E E E +E  E Q    E E E E E E E E   Q.     E +H
|---------5----|-------0-(0)------|---------0-------|---------------------|
|---------7----|-----5-------5----|-------3---3-----|---------------------|
|-------7-7----|---7-----------7--|-----5-------5---|---------------------|
|-----7--------|-6----------------|---5-----------5-|--------0-(0)--------|
|---0----------|------------------|-0---------------|-0-------------------|
|-0------------|------------------|-----------------|---------------------|
|
| Gtr III
| E E E E H      E E E E +E  E Q    E E E E E E E E   E  E E E  E  E E E
|---------5----|-------0-(0)------|---------0-------|-----------0---------|
|---------7----|-----5-------5----|-------3---3-----|--------3-----3------|
|-------7-7----|---7-----------7--|-----5-------5---|------5---------5----|
|-----7--------|-6----------------|---5-----------5-|-4--5-------------5--|
|---0----------|------------------|-0---------------|---------------------|
|-0------------|------------------|-----------------|---------------------|


  E5         F                 Fmaj7b5
  Gtrs II, III
  Q.   E E E Q    +H             H
|---------------|--------------^-0-----|
|---------------|--------------^-0-----|
|------------2--|-(2)----------^-2-----|
|-2----2-----3--|-(3)----------^-3-----|
|-2----2-----3--|-(3)------------------|
|-2--------0-3--|-(3)------------------|
|
| Gtr I
|                                ~~~~
| W                H      a      H
|---------------|----------------------|
|---------------|---------------12-----|
|---------------|--------14b16-(14)----|
|---------------|----------------------|
|---------------|----------------------|
|---------------|----------------------|


  Bbsus2  Bb    Ebmaj9
                      6/4
  E E E E +E  E   Q     +W.
|-------1-(1)-----1--|--(1)-------------||
|-----1-------3---3--|--(3)-------------||
|---3-------------3--|--(3)-------------||
|-3---------------1--|--(1)-------------||
|-----------------1--|--(1)-------------||
|-----------------1--|--(1)-------------||
|
|                 ~~~~~~~~~~
| H        Q      Q     +W         H
|--------------------|------------------||
|---------------/15--|-(15)-------------||
|--------------------|------------------||
|--------------------|------------------||
|--------------------|------------------||
|--------------------|------------------||


 Verse
  C5              G/B                Fadd6add9   Ebadd6add9
 4/4
  Gtrs II, III
  Q  E E Q  E E   E E E E +E  E Q    Q.   E Q  E E   +Q   Q  E E Q
|--------3----3-|-------3-(3)------|-3-------------|------1-----------|
|------3--------|-----3-------3----|-3-------------|---------1--------|
|----0------0---|---0-----------0--|-5----5------3-|-(3)-------3-3/---|
|---------------|------------------|-3----3------1-|-(1)---------1/---|
|-3-------------|-2----------------|-3----3------1-|-(1)---------1/---|
|---------------|------------------|-3----3------1-|-(1)---------1/---|


  Gbadd6add9   E5         Dmaj7    Dadd6addE      Fb5
  Q  E E E Q   E   +H     Q.   E   E E E E H      Q.   E E E Q
|----4---------0-|-(0)----0------|-0------------|---------------|
|------4-------0-|-(0)----0------|---0-----0----|------0--------|
|-6------5-----1-|-(1)----2------|---------1----|-2------2------|
|-4--------6\--2-|-(2)----4----4-|-----0h2-2----|-3--------3----|
|-4------------2-|-(2)----0----0-|-----0h2-2----|-3----------3--|
|-4--------------|---------------|-----0h2-2----|-3-------------|


         G      Aadd2  A9 Fmaj9
  E E Q  H      Q.   E Q  Q    +Q   Q   E E E E
|-------------|-0---------3--|-(3)--3-----------||
|---0---------|-0------0--5--|-(5)------5-------||
|-2---2--4----|-6------6--5--|-(5)--------5-----||
|--------5----|-7----7-5--3--|-(3)----------3h5-||
|--------5----|-7------------|------------------||
|--------5----|-7------------|------------------||
|
| Gtr I
| W             W               Q   E E E E Q
|-------------|--------------|------3s5-5s7s8s==||
|-------------|--------------|------------------||
|-------------|--------------|------------------||
|-------------|--------------|------------------||
|-------------|--------------|------------------||
|-------------|--------------|------------------||


 Pre-Chorus
  Cadd2/G        D9/F#
   E E E E +E  E E E     E  Q  E E E E E
|--------0-(0)-------|------0--------0---|
|------3-------3-----|---3-----3-------3-|
|----5-------------5-|-----------5-------|
|--5-------------4---|-------------4-----|
|--------------------|-------------------|
|--------------------|-------------------|
|
|  W                    +W
|-12-----------------|-(12)--------------|
|--------------------|-------------------|
|--------------------|-------------------|
|--------------------|-------------------|
|--------------------|-------------------|
|--------------------|-------------------|


  Cadd2/G          D9/F#
    E  E E E +E  E E E     E  Q  E E E   Q
|----------0-(0)-------|------0----------0---|
|--------3-------3-----|---3-----3-----------|
|------5-------------5-|-----------5---------|
|---5--------------4---|-------------4-------|
|----------------------|---------------------|
|----------------------|---------------------|
|
|  +W                     +H.           +Q
|-(12)-----------------|-(12)----------(12)--|
|----------------------|---------------------|
|----------------------|---------------------|
|----------------------|---------------------|
|----------------------|---------------------|
|----------------------|---------------------|


  Fmaj7sus4     C7/E                     Fsus4       Ebmaj9
  Gtr II
  E E E E +E  E E E    E  Q  E E E E E    E E E E Q  Q
|-------0-(0)-------|-----0--------0---|--------1----1--|
|-----1-------1-----|--1-----1-------1-|------1------3--|
|---3-------------3-|----------3-------|----3--------3--|
|-3-------------2---|------------2-----|--3----------1--|
|-------------------|------------------|-------------1--|
|-------------------|------------------|-------------1--|
|
| Gtr III
| E E E E +E  E E E    E  Q  E E E E E    E E E E Q  Q
|-------0-(0)-------|-----0--------0---|--------1----1--|
|-----1-------1-----|--1-----1-------1-|------1------3--|
|---3-------------3-|----------3-------|----3--------3--|
|-3-------------2---|------------2-----|--3----------1--|
|-------------------|------------------|-------------1--|
|-------------------|------------------|-------------1--|
|
| Gtr I
|                                         <
| W                   +W                  W
|-8-----------------|-(8)--------------|-13-------------|
|-------------------|------------------|----------------|
|-------------------|------------------|----------------|
|-------------------|------------------|----------------|
|-------------------|------------------|----------------|
|-------------------|------------------|----------------|


   +H.      +E  E     E  E E E  +Q     E  E
|--(1)------(1)---|------1---1--(1)---------||
|--(3)------(3)-3-|---3----3-3--(3)----3----||
|--(3)------(3)---|----------3--(3)---------||
|--(1)------(1)---|----------1--(1)---------||
|--(1)------(1)---|-------------------------||
|--(1)------(1)---|-------------------------||
|
|  +H.      +E  E     H          Q     Q
|--(1)------(1)---|-------------------------||
|--(3)------(3)-3-|-------------------------||
|--(3)------(3)---|-------------------------||
|--(1)------(1)---|-------------------------||
|--(1)------(1)---|-------------------------||
|--(1)------(1)---|-------------------12\---||
|
|  +W                +H         +H
|-(13)------------|-(13)-------(13)\--------||
|-----------------|-------------------------||
|-----------------|-------------------------||
|-----------------|-------------------------||
|-----------------|-------------------------||
|-----------------|-------------------------||


 Chorus
  $
  D             E7/D               Fmaj7sus2       D5E5F5D5G5 F5E5
  Gtrs II, III
  H    Q.   E   E E E E +Q   Q       Q.   E H      E E E E Q  E E
|------5------|-------0-(0)------|---0------0----|-----------------|
|------7------|-----5------------|---1------1----|-----------------|
|------7------|---7----------7\--|---0------0----|-----------------|
|------7----0-|-6----------------|---3----3-3----|-----------------|
|-------------|------------------|---3------3----|-0-2-3-0S5--3-2--|
|-0-----------|------------------|---3------3----|-0-2-3-0S5--3-2--|
|
| Gtr I
|                                    ~~~~
| W             W                    W             W
|-------------|------------------|---------------|-----------------|
|-------------|------------------|-/17-----------|-----------------|
|-------------|------------------|---------------|-----------------|
|-------------|------------------|---------------|-----------------|
|-------------|------------------|---------------|-----------------|
|-------------|------------------|---------------|-----------------|


  D              E7/D                Am11              Am11/F#  Am11/D
  Gtr II
  E E E E H      E E E E +E  E E E   E E E E E E E E   Q.     E +Q   Q
|---------5----|-------0-(0)-------|---------0-----0-|--------------------|
|---------7----|-----5-------5---5-|-------3---3-----|--------------------|
|-------7-7----|---7-----------7---|-----5-------5---|--------------------|
|-----7--------|-6-----------------|---5-------------|-4------0-(0)-------|
|---0----------|-------------------|-0---------------|---------------5\---|
|-0------------|-------------------|-----------------|--------------------|
|
| Gtr III
| E E E E H      E E E E +E  E E E   E E E E E E E E   E  E E E +H
|---------5----|-------0-(0)-------|---------0-----0-|--------0-(0)-------|
|---------7----|-----5-------5---5-|-------3---3-----|------3-------------|
|-------7-7----|---7-----------7---|-----5-------5---|----5---------------|
|-----7--------|-6-----------------|---5-------------|-5------------------|
|---0----------|-------------------|-0---------------|--------------------|
|-0------------|-------------------|-----------------|--------------------|


  D           E7/D               Fmaj7sus2       D5   E5F5D5G5 F5    E5
  Gtrs II, III
  H    H      E E E E +E  E Q      Q.   E H        E  E E E Q    E   E
|------5----|-------0-(0)------|---0------0----|------------------------|
|------7----|-----5-------5----|---1------1----|------------------------|
|------7----|---7-----------7--|---0------0----|------------------------|
|------7----|-6----------------|---3----3-3----|------------------------|
|-----------|------------------|---3------3----|---0--2-3-0S5----3---2--|
|-0---------|------------------|---3------3----|---0--2-3-0S5----3---2--|
|
| Gtr I
|                                  ~~~~~~~~~~~~~~~~~~~
| W           W                    W              +H.           +Q
|-----------|------------------|---------------|------------------------|
|-----------|------------------|-/17-----------|-(17)----------(17)\----|
|-----------|------------------|---------------|------------------------|
|-----------|------------------|---------------|------------------------|
|-----------|------------------|---------------|------------------------|
|-----------|------------------|---------------|------------------------|


  D              E7/D                Am11              Am11/F#Am11/D
  Gtr II
  E E E E H      E E E E +E  E E E   E E E E E E E E   Q.     E +Q    Q
|---------5----|-------0-(0)-------|---------0-----0-|--------------------||
|---------7----|-----5-------5---5-|-------3---3-----|--------------------||
|-------7-7----|---7-----------7---|-----5-------5---|--------------------||
|-----7--------|-6-----------------|---5-------------|-4------0-(0)---0---||
|---0----------|-------------------|-0---------------|--------------------||
|-0------------|-------------------|-----------------|--------------------||
|
| Gtr III
| E E E E H      E E E E +E  E E E   E E E E E E E E   E  E E E +E  E Q
|---------5----|-------0-(0)-------|---------0-----0-|--------0-(0)-------||
|---------7----|-----5-------5---5-|-------3---3-----|------3---------3---||
|-------7-7----|---7-----------7---|-----5-------5---|----5---------5-----||
|-----7--------|-6-----------------|---5-------------|-5------------------||
|---0----------|-------------------|-0---------------|--------------------||
|-0------------|-------------------|-----------------|--------------------||


                                                                     To Coda
  E          F    Fmaj7b5                  D5   E5 E     F          F5 G5 D5
  Gtrs II, III
                                                       PM
  Q.   E E E Q    +Q   E E         H         E  Q  E E E Q     +Q   Q  Q  Q
|---------------|------------------0-----|------------------|----------------|
|---------------|------------------0-----|------------------|----------------|
|-1----1-----2--|-(2)----2---------2-----|---------1-----2--|--(2)-----------|
|-2----2---0-3--|-(3)--3-----------------|---------2-----3--|--(3)--3--5--0--|
|-2----2-----3--|-(3)--------------------|---0--2--2-----3--|--(3)--3--5--0--|
|-2----------3--|-(3)--------------------|---0--2------0-3--|--(3)--3--5--0--|
|
| Gtr I
|                                  ~~~~~~~~~~~~~~~~~~~~~~~~~~~~~~~~
| W                H        a      H        +W                 +H.        Q
|---------------|------------------------|------------------|----------------|
|---------------|-----------------12-----|-(12)-------------|-(12)-----------|
|---------------|----------14b16-(14)----|-(14)-------------|-(14)-----------|
|---------------|------------------------|------------------|----------------|
|---------------|------------------------|------------------|----------------|
|---------------|------------------------|------------------|----------------|


  E          F                   Fmaj7b5   D5   E5 E     F
  Gtr IV
  W                W                         H       Q   E.  S
|---------------|------------------------|---------------------|
|---------------|------------------------|---------------------|
|---------------|------------------------|---------------------|
|---------------|------------------------|---------------------|
|---------------|------------------------|------------------12-|
|---------------|------------------------|---------------------|
|
| Gtrs II, III
|                                                      PM
| Q.   E E E Q    +Q   E E         H         E  Q  E E E Q
|---------------|------------------0-----|---------------------|
|---------------|------------------0-----|---------------------|
|-1----1-----2--|-(2)----2---------2-----|---------1-----2-----|
|-2----2---0-3--|-(3)--3-----------------|---------2-----3-----|
|-2----2-----3--|-(3)--------------------|---0--2--2-----3-----|
|-2----------3--|-(3)--------------------|---0--2------0-3-----|
|
| Gtr I
|                                  ~~~~~~~~~~~~~~~~~~~~~~~~~~~~~
| W                H        a      H        +W
|---------------|------------------------|---------------------|
|---------------|-----------------12-----|-(12)----------------|
|---------------|----------14b16-(14)----|-(14)----------------|
|---------------|------------------------|---------------------|
|---------------|------------------------|---------------------|
|---------------|------------------------|---------------------|


                                                       G5       A5
                                            <
    |-----5------|  |------6-------|  |------6-------|  |------6-------|
    S   S  S  S  S  S  S  S  S  S  S  S  S  S  S  S  S  S  S  S  S  S  S
|---------------------------------------------------------------13-15-17----||
|------------------------------------------------------13-15-17-------------||
|---------------------------------------------12-14-15----------------------||
|------------------12-------12-14-15-12-14-15-------------------------------||
|--13--15-12-13-15----13-15-------------------------------------------------||
|---------------------------------------------------------------------------||
|
|  +Q               Q                 Q                 E        E
|---------------------------------------------------------------------------||
|---------------------------------------------------------------------------||
|--(2)--------------2-----------------2-------------------------------------||
|--(3)--------------3-----------------3-------------------------------------||
|--(3)--------------3-----------------3-----------------5s=======7----------||
|--(3)--------------3-----------------------------------5s=======7----------||
|
|~~~~~~
|  +H.                                                  Q
|---------------------------------------------------------------------------||
|-(12)----------------------------------------------------------------------||
|-(14)----------------------------------------------------------------------||
|---------------------------------------------------------------------------||
|---------------------------------------------------------------------------||
|---------------------------------------------------------------------------||


 Guitar Solo
         Bbmaj9
           ~~~~
                                                                    |---3---|  |--3--|
   a      +H.         +S   a      +S    S      +S     +Q      E  E  Q       E  E  E  E
|-17b18==(17)--------(17)-17pb18-(17)r-17b18==(17)r|=(17)----15------------------------|
|--------------------------------------------------|------------18-17\--------------15-|
|--------------------------------------------------|--------------------------14h15----|
|--------------------------------------------------|-----------------------14----------|
|--------------------------------------------------|-----------------------------------|
|--------------------------------------------------|-----------------------------------|
|
|          H      H                                    E   E  E  E  E   Q.
|--------------------------------------------------|---8-------------------------------|
|---------11---------------------------------------|------11-------11------------------|
|---------10-----10--------------------------------|---------10--------10--------------|
|---------10---------------------------------------|------------10---------------------|
|----------x---------------------------------------|-----------------------------------|
|----------6---------------------------------------|-----------------------------------|


         Amaj9
           ~~~~
                                                    |--3--|
   a      +H      +E   S  S  E  S  S    E  S  S  E  S  S  S  Q.    E
|------------------------------------|-------------------------------|
|-15pb17-(15)----(15)-14h17p14-------|-----------------------------9-|
|------------------------------13h16p|=13----------------------------|
|------------------------------------|----14h16p14-11h14p11----------|
|------------------------------------|----------------------14-------|
|------------------------------------|-------------------------------|
|
|          H       H                    E  E     E  E        E  Q  E
|------------------7-----------------|--7----------------------------|
|------------------9-----------------|-----9-----------------9-------|
|------------------9-----------------|-----------9--------------9----|
|------------------7-----------------|--------------7--------------7-|
|------------------7-----------------|-------------------------------|
|----------7-------7-----------------|-------------------------------|


     Ab13+11
      ~~              ~~
            |--3---|
   a  Q    +E   E  E  Q   +E.   S    S   S  S  S  S  S  S  S  S  S  S  S  Q
|---------------------------------|----------------------------------------------|
|---------------------------------|-----------------------15-18p15---------------|
|-11s13---(13)--------------------|-10h=13p10-------13s15----------17p15-17b19---|
|--------------15p13-12--(12)-/13-|-----------13-15------------------------------|
|---------------------------------|----------------------------------------------|
|---------------------------------|----------------------------------------------|
|
|     |----3----|
|     Q Q       Q     H             +H                        E     E     E    E
|---------------------6-----------|-(6)-----------------------6------------------|
|---------------------6-----------|-(6)-----------------------------6------------|
|---------------------7-----------|-(7)-----------------------------------7------|
|---------------8-----------------|--------------------------------------------8-|
|-------6-------------------------|----------------------------------------------|
|-----6---------------------------|----------------------------------------------|


  Gmaj9
                     ~~
   +Q     +E   S  S  H       S  S  E  E  E  H
|-------------------------|-12s14s12-10-10-10---------|
|-------------------------|-12s14s12-10-10-10---------|
|-(17)---(17)-14p12-11----|-------------12-11---------|
|-------------------------|---------------------------|
|-------------------------|---------------------------|
|-------------------------|---------------------------|
|
|   E  E   E   E     H       E     E  E  E  E E Q
|--------------------5----|--5--------------5---------|
|--------------------7----|--------7----------7-------|
|--------------7----------|-----------7---------7\----|
|----------5--------------|--------------5------------|
|------5------------------|---------------------------|
|---5---------------------|---------------------------|


        F#7b9
          ~~~~             ~~~                                               ~~
                 |--3---|                                  |------6-------|
   a     +Q     +E   E  E  Q.    S  S    E  S  S  E  S  S  S  S  S  S  S  S  Q
|-------------------12h15p14----12h15p|=14-12h15p14-12h15-14-12-----------------|
|-15b17-(15)---(15)-------------------|-------------------------14-12-----------|
|-------------------------------------|-------------------------------14-12-----|
|-------------------------------------|-------------------------------------11--|
|-------------------------------------|-----------------------------------------|
|-------------------------------------|-----------------------------------------|
|
|         |----3-----|
|         Q  Q       Q     H             Q        Q        H
|--------------------------0----------|--------------------0--------------------|
|--------------------------2----------|--2-----------------2--------------------|
|--------------------0----------------|-----------0-----------------------------|
|------------4------------------------|-----------------------------------------|
|-------------------------------------|-----------------------------------------|
|---------4---------------------------|-----------------------------------------|


        Fmaj9
                              ~~~~~~~~~~~~~            ~~~~
   a     +E   E  E  E  a     +H        +H      a       Q.      +E
|------------12-12-15-17b19-(17)----|-(17)----17pb19==(x)r====(17)-|
|-15b17-(15)------------------------|------------------------------|
|-----------------------------------|------------------------------|
|-----------------------------------|------------------------------|
|-----------------------------------|------------------x\----------|
|-----------------------------------|------------------x\----------|
|
|         E   E  E  E         H        +H              E  E E   E
|-----------------------------3-----|--(3)-------------3--0--------|
|-------------------1---------1-----|--(1)------------------1------|
|----------------0------------0-----|--(0)-------------------------|
|-----------------------------------|---------------------------0--|
|-------------3---------------------|------------------------------|
|---------3-------------------------|------------------------------|


        D5     E5                            F5                     Fmaj7b5
                                                                     ~~~
   a     +S  S  S  S  S  S  S  S  S  S  S  S  Q     +Q    +E   S  S  Q.    +E
|-----------12-----------------------------------|------------------------------|
|-15b17-(15)---15-12----15-12----------12h13-12--|-(12)--(12)-12h13-------------|
|--------------------14-------14-12--------------|------------------14----(14)\-|
|-----------------------------------14-----------|------------------------------|
|------------------------------------------------|------------------------------|
|------------------------------------------------|------------------------------|
|
|         E     E     E     E     E     E     Q     +Q.        E     H
|------------------------------------------------|-------------------0----------|
|------------------------------------------------|-------------------0----------|
|------------------------------------------------|-------------2-----2----------|
|---------0h====2-----2-----2-----------------3--|--(3)-------------------------|
|---------0h====2-----2-----2-----------------3--|--(3)-------------------------|
|---------0h====2-----------------------0-----3--|--(3)-------------------------|


  Fsus4       Bb          Ebmaj9
                            ~~~~~~~~~~~~~~~~~~~~~~~~~
   E  E  E  E  E  E  a     +Q      +W            +H     H
|-------------18----20b22-(20)--|-(20)--------|-(20)---------||
|----------18----18-------------|-------------|--------------||
|----15-17----------------------|-------------|--------------||
|-15----------------------------|-------------|--------------||
|-------------------------------|-------------|--------------||
|-------------------------------|-------------|--------------||
|
|  E  E  E  E  E  E         Q      +W            +W
|-----------1--1------------1---|--(1)--------|--(1)---------||
|--------1--------3---------3---|--(3)--------|--(3)---------||
|-----3---------------------3---|--(3)--------|--(3)---------||
|--3------------------------1---|--(1)--------|--(1)---------||
|---------------------------1---|--(1)--------|--(1)---------||
|---------------------------1---|--(1)--------|--(1)---------||


 Verse
  C5             G/B
  Gtr II
  Q  Q  Q  E E   E E E E +E  E E E
|-------3----3-|-------3-(3)-------|
|-------3------|-----3-------3-----|
|----0-----0---|---0-----------0---|
|--------------|-----------------0-|
|-3------------|-2-----------------|
|--------------|-------------------|
|
| Gtr III
| W              W
|--------------|-------------------|
|--------------|-------------------|
|--------------|-------------------|
|--------------|-------------------|
|--------------|-------------------|
|--------------|-------------------|


                                 D.S. al Coda
  Fsus4   Bb/F  Ebmaj9
  E E E E +E  E Q    +W           +H      H
|-------1-(1)---1--|-(1)--------|-(1)-----------||
|-----1-------3-3--|-(3)--------|-(3)-----------||
|---3-----------3--|-(3)--------|-(3)-----------||
|-3-------------1--|-(1)--------|-(1)-----------||
|---------------1--|-(1)--------|-(1)-----------||
|---------------1--|-(1)--------|-(1)-----------||
|
| W                   W            H      H
|------------------|------------|---------------||
|------------------|------------|---------------||
|------------------|------------|---------------||
|------------------|------------|--------12\----||
|------------------|------------|---------x-----||
|------------------|------------|--------12\----||


  &
  D5E5 E     F                   Fmaj7b5
  Gtrs II, III
  E Q  E E E Q    +Q   E E         Q   E E
|---------------|----------------^-0-----0-|
|---------------|----------------^-0---0-0-|
|------1-----2--|-(2)----2-------^-2---2---|
|-0h2--2-----3--|-(3)--3---------^-3-------|
|-0h2--------3--|-(3)----------------------|
|-0h2----2-0-3--|-(3)----------------------|
|
| Gtr I
|                                  ~~~~
| W                H        a      H
|---------------|--------------------------|
|---------------|-----------------12-------|
|---------------|----------14b16-(14)------|
|---------------|--------------------------|
|---------------|--------------------------|
|---------------|--------------------------|


  Fsus4   Bb  Ebmaj9
  E E E E E E   Q     +W            +W
|-------1-------1--|--(1)--------|--(1)----*|
|-----1---1-3---3--|--(3)--------|--(3)----*|
|---3-----------3--|--(3)--------|--(3)----*|
|-3-------------1--|--(1)--------|--(1)----*|
|---------------1--|--(1)--------|--(1)----*|
|---------------1--|--(1)--------|--(1)----*|
|
|               ~~~~~~~~~~~~~~~~~~~~~~~~
| H       Q     Q     +W            +W
|------------------|-------------|---------*|
|-------------/15--|-(15)--------|-(15)----*|
|------------------|-------------|---------*|
|------------------|-------------|---------*|
|------------------|-------------|---------*|
|------------------|-------------|---------*|



--------------------------------------------------------------------------------
 

Duration Legend
---------------
W - whole; H - half; Q - quarter; E - 8th; S - 16th; T - 32nd; X - 64th; a - acciaccatura
+ - note tied to previous; . - note dotted; .. - note double dotted
Uncapitalized letters represent notes that are staccato (1/2 duration)
Irregular groupings are notated above the duration line
Duration letters will always appear directly above the note/fret number it represents the
duration for.  Duration letters with no fret number below them represent rests.  Multi-
bar rests are notated in the form Wxn, where n is the number of bars to rest for.  Low
melody durations appear below the staff

Tablature Legend
----------------
 h   - hammer-on
 p   - pull-off
 b   - bend
 pb  - pre-bend
 r   - bend release (if no number after the r, then release immediately)
 /\  - slide into or out of (from/to "nowhere")
 s   - legato slide
 S   - shift slide
 - natural harmonic
[n]  - artificial harmonic
n(n) - tapped harmonic
 ~   - vibrato
 tr  - trill
 T   - tap
 TP  - trem. picking
 PM  - palm muting
\n/  - tremolo bar dip; n = amount to dip
 \n  - tremolo bar down
 n/  - tremolo bar up
/n\  - tremolo bar inverted dip
 =   - hold bend; also acts as connecting device for hammers/pulls
 <> - volume swell (louder/softer)
 x   - on rhythm slash represents muted slash
 o   - on rhythm slash represents single note slash

Misc Legend
-----------
 |  - bar
||  - double bar
||o - repeat start
o|| - repeat end
*|  - double bar (ending)
 :  - bar (freetime)
 $  - Segno
 &  - Coda
Tempo markers -  = BPM(8/16=s8/s16), where s8 = swing 8ths, s16 = swing 16ths
Добавлено: 07.08.2013
Другие материалы по этой песне:

Страница создана 02.03.2012
http://primanota.ru/steve-vai/all-about-eve-chords.htm
Привет, Гость.
Предлагаем пройти революционный курс по гитаре.
Подарок от PrimaNota.Ru, забирай!