PrimaNota.ru - самый крупный в мире бесплатный архив песенных текстов, аккордов, табулатур и нот


Steve Jablonsky - Autobots Reunite - таба, видео

Регистрация Запомнить меня
Войти через:  Facebook Google Twitter Vk Yandex Mail.ru

Steve Jablonsky - Autobots Reunite - таба, видео

Печатать
Просмотров: 220
Уроки эстрадного вокала в Санкт-Петербурге
Autobots Reunite - Steve Jablonsky

Tabbed by: Kotonaruwind
E-mail: abandonedstrings@gmail.com

Tuning: standard

 (0:22 - 0:54)
e|---------------------------------------------------------------------------------|
B|---------------------------------------------------------------------------------|
G|---------------------------------------------------------------------------------|
D|---------9------7-----7-------------9------12--9--11--7--------------------------|
A|--7--10-----10-----9-----7---7--10-----10----------------------------------------|
E|---------------------------------------------------------------------------------|

e|---------------------------------------------------------------------------------|
B|---------------------------------------------------------------------------------|
G|---------------------------------------------------------------------------------|
D|---------9------7-----7-------------12--9--16--12--14--11------------------------|
A|--7--10-----10-----9-----7---7--10-----------------------------------------------|
E|---------------------------------------------------------------------------------|

 (0:54 - 1:10)
e|---------------------------------------------------------------------------------|
B|---------------------------------------------------------------------------------|
G|---------9------7-----7-------------9------12--9--11--7--------------------------|
D|--7--10-----10-----9-----7---7--10-----10----------------------------------------|
A|---------------------------------------------------------------------------------|
E|---------------------------------------------------------------------------------|

 (1:12 - 1:42)
e|---------------------------------------------------------------------------------|
B|---------------------------------------------------------------------------------|
G|--9--11--12---12--14--16---14--16--17--16---9--14--12---11--16--14---12--11--7--9|
D|---------------------------------------------------------------------------------|
A|---------------------------------------------------------------------------------|
E|---------------------------------------------------------------------------------|

 (1:48 - 2:19)
e|---------------------------------------------------------------------------------|
B|---------------------------------------------------------------------------------|
G|---------------------------------------------------------------------------------|
D|---------9------7-----7-------------12--9--12--9--11--7--------------------------|
A|--7--10-----10-----9-----7---7--10-----------------------------------------------|
E|---------------------------------------------------------------------------------|

e|---------------------------------------------------------------------------------|
B|---------------------------------------------------------------------------------|
G|---------------------------------------------------------------------------------|
D|---------9------7-----7-------------12--9--16--12--14--11------------------------|
A|--7--10-----10-----9-----7---7--10-----------------------------------------------|
E|---------------------------------------------------------------------------------|

 (2:19 - end)
e|---------------------------------------------------------------------------------|
B|-----------------------------------------------------------------12------------13|
G|---------------------------------------------9-----12--9--12--9------9--12--9----|
D|------------9------------10------------9--9-----9--------------------------------|
A|--7--10--7-----7--10--7------7--10--7--------------------------------------------|
E|---------------------------------------------------------------------------------|

e|---------------------------12----------------------------------------------------|
B|------------12------12-----------------------------------------------------------|
G|--9--12--9------12------9--------------------------------------------------------|
D|---------------------------------------------------------------------------------|
A|---------------------------------------------------------------------------------|
E|---------------------------------------------------------------------------------|

Soundtrack from Transformers: Age of Extinction (2014).
Добавлено: 29.12.2015
Другие материалы по этой песне:
  • Аккорды и текст

Страница создана 29.12.2015
http://primanota.ru/steve-jablonsky/autobots-reunite-chords.htm
Привет, Гость.
Предлагаем пройти революционный курс по гитаре.
Подарок от PrimaNota.Ru, забирай!