PrimaNota.ru - самый крупный в мире бесплатный архив песенных текстов, аккордов, табулатур и нот


Steve Jablonsky - Arrival To Earth - текст песни, таба, видео

Регистрация Запомнить меня
Войти через:  Facebook Google Twitter Vk Yandex Mail.ru

Steve Jablonsky - Arrival To Earth - текст песни, таба, видео

Печатать
Просмотров: 677
Авторы музыки: Steve Jablonsky

STEVE JABLONSKY – “ARRIVAL TO EARTH”, FROM “TRANSFORMERS: THE SCORE”
Tab by Engana92 (simone-grilli@virgilio.it)

Standard tuning

Intro (00:23 to 00:47):
e|---------------------------------------------------------------------------|
B|---------------------------------------------------------------------------|
G|---------------------------------------------------------------------------|
D|---------------------------------------------------------------------------|
A|----3-3-6-6-3-3-6-6-3-3-6-6-3-3-6-6----------------------------------------|
E|---------------------------------------------------------------------------|
                               (x8)

Instead of the previous part you can play this:
e|---------------------------------------------------------------------------|
B|---------------------------------8------------9------------8---------------|
G|---------------------------------------------------------------------------|
D|---5--------6-----------5--------------------------------------------------|
A|---------------------------------------------------------------------------|
E|---------------------------------------------------------------------------|


(00:47 to 01:23)
e|---------------------------------------------------------------------------|
B|------------------------------------------8-----6--------------------------|
G|-----5-----5-8--3--7-------5-----5------5----8-----8-7-5-----5-------------|
D|---5-----5-------------3-6----6-------5------------------6-----------------|
A|---------------------------------------------------------------------------|
E|---------------------------------------------------------------------------|

e|---------------------------------------------------------------------------|
B|----------------------------------------------------------------------8----|
G|-----5-8--3--7-------5-----5----3---8-7-5-----3-5---3--8-7-5---7-8-10------|
D|---5-------------3-6----6-------------------5------------------------------|
A|---------------------------------------------------------------------------|
E|---------------------------------------------------------------------------|


(01:23 to 01:56)
e|---8----8-11-6-10--------8---8------8-15---11---13---11-10-8---8------------|
B|------8----------------9---9------8--------------------------9--------------|
G|--------------------10------------------------------------------------------|
D|----------------------------------------------------------------------------|
A|----------------------------------------------------------------------------|
E|----------------------------------------------------------------------------|

e|-----8-11-6-10--------8---8-----6-10-11-8-------6-8--6--10-11-8-------------|
B|---8----------------9---9---------------------8-----------------------------|
G|-----------------10---------------------------------------------------------|
D|----------------------------------------------------------------------------|
A|----------------------------------------------------------------------------|
E|----------------------------------------------------------------------------|


(01:57 to 02:31)
e|---------------------------------------------------------------------------|
B|---------------------------6------------------7--------6-----9-------------|
G|---5-----8------------7-----------------8-----------------6----------------|
D|------5------------------8-----------------8-------------------------------|
A|---------------------------------------------------------------------------|
E|---------------------------------------------------------------------------|

e|----------------------------7------------------9----------------9-----7----|
B|---7-----10-----------9-----------------10----------------9----------------|
G|------6------------------9------------------9----------------9-------------|
D|---------------------------------------------------------------------------|
A|---------------------------------------------------------------------------|
E|---------------------------------------------------------------------------|


(02:31 to 03:05)
e|---10--------10-13-8-12-----8-10-6-10-------10-17-13-15-13-12-10-------10--|
B|----------10--------------8--------------10------------------------11------|
G|---------------------------------------------------------------------------|
D|---------------------------------------------------------------------------|
A|---------------------------------------------------------------------------|
E|---------------------------------------------------------------------------|

e|------10-13-8-12-----8-10-6-10-------8--13-12-10-------8-10--8--12-13--10--|
B|---10--------------8--------------------------------10---------------------|
G|---------------------------------------------------------------------------|
D|---------------------------------------------------------------------------|
A|---------------------------------------------------------------------------|
E|---------------------------------------------------------------------------|


(03:05 to 03:58)
e|---------------------------------------------------------------------------|
B|---------------------------------------------------------------------------|
G|----------------------------------------7--------------------555-----------|
D|---5-----3---5--------------5-----5-----5--3-------------------------------|
A|---------------------3---5----------------------666-6-66-6-----------------|
E|---------------------------------------------------------------------------|


e|-------------------8-------------------------------------------------------|
B|---11--10--8----------11--10-------11--10--8--10---------------------------|
G|--------------------------------------------------12-----------------------|
D|---------------------------------------------------------------------------|
A|---------------------------------------------------------------------------|
E|---------------------------------------------------------------------------|


Outro:

e|---------------------------------------------------------------------------|
B|---------------------------------------------------------------------------|
G|------------------------------------5-7-5--------2-3-5-7-8-3-------7-5-3-5-|
D|----5588558855885588----------5-7-8------------3-----------------6---------|
A|----------------------------5----------------------------------------------|
E|---------------------------------------------------------------------------|
           (4x)

e|---------------------------------------------------------------------------|
B|---------------------------------------------------------------------------|
G|---------------------------------------------------------------------------|
D|---------5-----8---------------8----10------8-7-5-----3--5--7--------------|
A|---5---------------------8-------------------------------------------------|
E|---------------------------------------------------------------------------|


e|---------------------------------------------------------------------------|
B|-----8--6--8----------------------7-10-8---6-8-10---11-10-----8-8--10-8--8-|
G|---7----------7-----5--3--5--7----------------------------7-------------7--|
D|---------------------------------------------------------------------------|
A|---------------------------------------------------------------------------|
E|---------------------------------------------------------------------------|

This is my first tab, sorry for mistakes. For any correction or doubt, please  send an 
e-mail to simone-grilli@virgilio.it.
Добавлено: 10.11.2013
Другие материалы по этой песне:

Страница создана 15.06.2012
http://primanota.ru/steve-jablonsky/arrival-to-earth-chords.htm
Привет, Гость.
Предлагаем пройти революционный курс по гитаре.
Подарок от PrimaNota.Ru, забирай!