PrimaNota.ru - самый крупный в мире бесплатный архив песенных текстов, аккордов, табулатур и нот


Steelheart - Everybody Loves Eileen - текст песни, таба, видео

Регистрация Запомнить меня
Войти через:  Facebook Google Twitter Vk Yandex Mail.ru

Steelheart - Everybody Loves Eileen - текст песни, таба, видео

Печатать
Просмотров: 207
Steelheart - Everybody Loves Eileen

Tuning: Eb/ half step down


[Intro/Verse]

Guitar 1
E---------------------------------------------------|
B---------------------------------------------------|
G---------------------------------------------------|
D--11-------11-------11----12-------12-------12-----|
A--12-12-12-12-12-12-12-12-12-12-12-12-12-12-12-12--|
E---------------------------------------------------|

E---------------------------------------------------|
B---------------------------------------------------|
G--11-------11-------11----11-------11-------11-----|
D--12-12-12-12-12-12-12-12-12-12-12-12-12-12-12-12--|
A---------------------------------------------------|
E---------------------------------------------------|

Guitar 2
E------------------------|
B------------------------|
G----------7-------7-7---|
D--7-------7--5-7--7-7---|
A--7-------5--5-7--5-5---|
E--5----------3-5--------| x2

then:
E-------------------------------------------------------------------|
B-------------------------------------------------------------------|
G----------------------------------7-----7-----7---7-----7-----7----|
D--7-----7-----7---7-----7-----7---7-----7-----7---7-----7-----7----|
A--7-----7-----7---7-----7-----7---5-5-5-5-5-5-5-5-5-5-5-5-5-5-5-5--|
E--5-5-5-5-5-5-5-5-5-5-5-5-5-5-5-5----------------------------------|


[Chorus]

E--------------------|
B--------------------|
G-----------7---7----|
D---7---5---7---7----|
A---7---5---5---5----|
E---5---3------------| x4


[Bridge]

E-----------------------------------------------------|
B-----------------------------------------------------|
G--7----7-----7-----7---7-----7-----7-----7-----7-7---|
D--7----7-----7-----7---7-----7-----7-----7-----7-7---|
A--5----5-5-5-5-5-5-5---5-5-5-5-5-5-5-5-5-5-5-5-5-5---|
E-----------------------------------------------------|

E----------0-------|
B----------0-------|
G---2----------7---|
D---2----2-----7---|
A---0----2-----5---|
E--------0---------| x4


[Solo Rythm]

E----------0-------|
B----------0-------|
G---2----------7---|
D---2----2-----7---|
A---0----2-----5---|
E--------0---------| x4

then:
E------------------------------------|
B------------------------------------|
G--7---------------------------------|
D--7-7-7-7-7-7-7-7-7-7-7-7-7-7-7-7---|
A--5-5-5-5-5-5-5-5-5-5-5-5-5-5-5-5---|
E------------------------------------|


*Solo Guitar Parts*


[intro lick]

E------------------17----|
B--14h15p14--------------|
G------------16-14-------|
D------------------------|
A------------------------|
E------------------------|


[Guitar Solo]

E--19b-19br-17-19----17--21b-21---17-----17--------|
B------------------------------------21b----21b----|
G--------------------------------------------------|
D--------------------------------------------------|
A--------------------------------------------------|
E--------------------------------------------------|

E--16b-16br-14------------------------------|
B--------------17---17b-17b---17------------|
G--------------------------------16br-14----|
D-------------------------------------------|
A-------------------------------------------|
E-------------------------------------------|

this tapping part might be wrong.. (x4 - play section notes 4 times)
E--------------------------------------------------------|
B--10p9p7-(x4)---10p7p5-(x4)--10p5p3-(x4)--10p7p5-(x4)---|
G--------------------------------------------------------|
D--------------------------------------------------------|
A--------------------------------------------------------|
E--------------------------------------------------------|

E--17--17-19-21-22b--22--21br-17----22b---|
B-----------------------------------------|
G-----------------------------------------|
D-----------------------------------------|
A-----------------------------------------|
E-----------------------------------------|

p - pull off
h - hammer on
b - bend
br - bend then release
Добавлено: 15.08.2013
Вам также может быть интересно:
Другие материалы по этой песне:
  • Аккорды и текст

Страница создана 28.04.2012
http://primanota.ru/steelheart/everybody-loves-eileen-chords.htm
Привет, Гость.
Предлагаем пройти революционный курс по гитаре.
Подарок от PrimaNota.Ru, забирай!