PrimaNota.ru - самый крупный в мире бесплатный архив песенных текстов, аккордов, табулатур и нот


Steel Panther - If I Was The King - таба, бас-таба, видео

Регистрация Запомнить меня
Войти через:  Facebook Google Twitter Vk Yandex Mail.ru

Steel Panther - If I Was The King - таба, бас-таба, видео

Печатать
Просмотров: 167
Авторы музыки: Steel Panther
Авторы текста: Steel Panther
-------------------------------------------------------------------------------
                             If I was the KING - Steel Panther
-------------------------------------------------------------------------------
Tabbed by: Noah Edwards, 18/03/2015
E-mail: Dankkushblazeit8@gmail.com

Tuning: Eb Ab Db Gb Bb eb

This Song is not hard to learn, but it still kicks ass.

INTRO:
e|---------------------------------------------------------------------------|
B|---------------------------------------------------------------------------|
G|-9999999-8--12-12-12-12-12-12-12-11--9999999-8--------------4--------------|
D|-9999999-8--12-12-12-12-12-12-12-11--9999999-8--------------4--------------|
A|-7777777-6--10-10-10-10-10-10-10-9---7777777-6--7-5---------2--------------|
E|----------------------------------------------------7-6-5-0----------------|

VERSE:
  |PALM MUTE THE WHOLE RIFF|    When Appropriate, add this ending.
e|-----------------------------|---------------------------------------------|
B|-----------------------------|---------------------------------------------|
G|-----------------------------|---------------------------------------------|
D|-----------------0---0---0-2-|---------------------------------------------|     REPEAT 12 TIMES AND
A|---------0-0-2-2--0-2--2-----|-2-1-----------------------------------------|          JUMP INTO
E|-0-0-3-3---------------------|-----3p0-------------------------------------|          PRE-CHORUS.

PRE CHORUS:
e|---------------------------------------------------------------------------|
B|---------------------------------------------------------------------------|
G|-999999-777----------------------------------------------------------------|
D|-999999-777----------------------------------------------------------------|    EASIEST PART IN THE SONG.
A|-777777-555----------------------------------------------------------------|
E|---------------------------------------------------------------------------|

CHORUS:
e|----------------|------------|---------------------------------------------|
B|----------------|------------|---------------------------------------------|
G|-5---------7----|------------|-----0------2--------------------------------|  THE FIRST SECTION IS IMPORTANT,
D|-5----5----7----|------------|-0-2~---0-2~---------------------------------|   USE THE TWO LATTER SECTIONS
A|-3----5----5----|-2----------|---------------------------------------------|         TO FIT THE SONG
E|------3---------|-0-3~-4~-5~-|---------------------------------------------|

"IF YOU DIDN'T LIKE STEEL PANTHER, YOU'D GO TO JAIL!"
e|----------------------------|----------------------------------------------|
B|----------------------------|----------------------------------------------|
G|----------------------------|-5---------7----------------------------------|
D|-2222-5--2222-5-8-7-5-7-5---|-5----5----7----------------------------------|    CHORUS CARRIES ON AFTERWARDS
A|-0000-3--0000-3-6-5-3-5-3-5-|-3----5----5-2--------------------------------|
E|--------------------------3-|------3------0-3~-4~-5~-----------------------|

POST-CHORUS:
e|---------------------------------------------------------------------------|
B|---------------------------------------------------------------------------|
G|-5555555555-4---5--999999-4-12-12-12-12-12-12-11---------------------------|
D|-5555555555-4-5-5--999999-4-12-12-12-12-12-12-11---------------------------|
A|-3333333333-2-5-3--777777-6-10-10-10-10-10-10-9----------------------------|
E|--------------3------------------------------------------------------------|

Solo:
e|-------------------------------------------10~-----------------------------|
B|-------------------------------------------13~-10----10-10-----------------|
G|-19b-17-------------------------------------------12-----------------------|     THE SOLO WAS VERY HARD TO 
D|--------19--17-19-17/12-10-------------------------------------------------|          TAB, SOMEONE MORE
A|--------------------------12-10-12-10--------------------------------------|   SKILLED FEEL FREE TO HELP OUT
E|--------------------------------------12~----------------------------------|

e|-12-10---------------------------------------------------------------------|
B|-------12-11-10------------------------------10+---------------------------|
G|----------------12-10------------------------------------------------------|
D|----------------------12br-11br-10br---10\14-------------------------------|
A|---------------------------------------------------------------------------|
E|---------------------------------------------------------------------------|

"The Motherfucking Peasants"
e|---------------------------------------------------------------------------|
B|---------------------------------------------------------------------------|
G|---------------------------------------------------------------------------|
D|----7/5/4----7/5/4----7-5---7-5---7-5--------------------------------------|
A|--7-5/3/2--7-5/3/2--7-5-3-7-5-3-7-5-3--------------------------------------|
E|--5--------5--------5-----5-----5------3333-222-111-0----------------------|

REPEAT VERSE, THEN DO THIS:
e|---------------------------------------------------------------------------|
B|---------------------------------------------------------------------------|
G|-9999-11-11-11-11-12-12-12-12-14-14-14-14----------------------------------| AT THE END OF THE VERSE IN THIS
D|-9999-11-11-11-11-12-12-12-12-14-14-14-14----------------------------------|  SLIGHTLY BEND THE 10TH A FRET
A|-7777-9--9--9--9--10-10-10-10-12-12-12-12----------------------------------|      AND THE 12TH D FRET TOO
E|---------------------------------------------------------------------------|

REPEAT CHORUS, AND VARY THE END ACCORDINGLY.
************************************

| /   slide up
| \   slide down
| h   hammer-on
| p   pull-off
| ~   vibrato
| +   harmonic
| x   Mute note
| b   Bend
| pb  Pre-bend
| br  Bend release
| pbr Pre-bend release
| brb Bend release bend

************************************
Добавлено: 08.12.2015
Другие материалы по этой песне:
  • Аккорды и текст

Страница создана 16.04.2014
http://primanota.ru/steel-panther/if-i-was-king-chords.htm
Привет, Гость.
Предлагаем пройти революционный курс по гитаре.
Подарок от PrimaNota.Ru, забирай!