PrimaNota.ru - самый крупный в мире бесплатный архив песенных текстов, аккордов, табулатур и нот


Static X - This Is Not - аккорды и текст, таба, видео

Регистрация Запомнить меня
Войти через:  Facebook Google Twitter Vk Yandex Mail.ru

Static X - This Is Not - аккорды и текст, таба, видео

Печатать
Просмотров: 125
Уроки эстрадного вокала в Санкт-Петербурге
This Is Not
Static X
		   ------------------------------------------------------------
     SONG: THIS IS NOT
     BAND: STATIC X
     ALBUM: MACHINE
   TRANSCRIBED BY: César CHaPaRRo G


------------------------------------------------------------
     Tuning: Drop C  and down 1/2 step  (C# G# C# F# A# D#)

Key:
p  : pull off

^  : Artificial harmonic

/  : Slide up




RIFF 1


D#|--8-8-8-8-11-----8-8-8-8-8-8-8-8-11---------------|
A#|--------------------------------------------------|
F#|--------------------------------------------------|
C#|--------------------------------------------------|
G#|--------------------------------------------------|
C#|--------------------------------------------------|

    This is not!!                  This is not!!


RIFF 2

D#|----------------------------------------------------|
A#|----------------------------------------------------|
F#|----------------------------------------------------|
C#|----------------------------------------------------|
G#|----------------------------------------------------|
C#|-5p0--0--5p0--0---5p0-5p0--0--5p0---0---5p0-5p0---0-|


D#|--------------------------------------------------|
A#|--------------------------------------------------|
F#|--------------------------------------------------|
C#|------------------------------------6-------------|
G#|------------------------------------6-------------|
C#|--5p0---0---5p0-5p0--0---5p0---0----6-------------|



RIFF 3 (VERSE)

D#|---------------------------¦   ¦----------------------------|
A#|---------------------------¦   ¦----------------------------|
F#|---------------------------¦4X ¦----------------------------|
C#|---------------------------¦   ¦-----------6----------------|2X
G#|---------------------------¦   ¦-----------6----------------|
C#|---5p0--0--0----5p0--0--0--¦   ¦-----------6----------------|


D#|----------------------------------¦   ¦---------------------|
A#|----------------------------------¦   ¦---------------------|
F#|----------------------------------¦   ¦---------------------|
C#|----------------------------------¦4X ¦----6----------------|
G#|----------------------------------¦   ¦----6----------------|
C#|---5p0--0--0----5p0--0--0----0-0--¦   ¦----6----------------|

D#|---------------------------¦   ¦----------------------------|
A#|---------------------------¦   ¦----------------------------|
F#|---------------------------¦4X ¦----------------------------|
C#|---------------------------¦   ¦-----------6----------------|
G#|---------------------------¦   ¦-----------6----------------|
C#|---5p0--0--0----5p0--0--0--¦   ¦-----------6----------------|



RIFF 4     (CHORUS)

GUITAR 1

D#|------------¦-----------¦------------¦----------------|
A#|------------¦-----------¦------------¦----------------|
F#|------------¦-----------¦------------¦----------------|
C#|--6-5-------¦-6-5-------¦--6-5-------¦---6-5----------|2X
G#|--6-5-------¦-6-5-------¦--6-5-------¦---6-5----------|
C#|--6-5-------¦-6-5-------¦--6-5-------¦---6-5----------|
     this is   ¦ This is   ¦  This is   ¦
     not my    ¦ not my    ¦  not me    ¦ I HATE THIS!!!
     life!!!   ¦ home!!!   ¦  me!!!     ¦

GUITAR 2

D#|--8-8-8-8-11-----8-8-8-8-8-8-8-8-11---------------|
A#|--------------------------------------------------|
F#|--------------------------------------------------|
C#|--------------------------------------------------|4X
G#|--------------------------------------------------|
C#|--------------------------------------------------|



D#|--------------------------------------------------|
A#|--------------------------------------------------|
F#|--------------------------------------------------|4X
C#|--------------------------------------------------|
G#|--------------------------------------------------|
C#|---5^-5^-5^-5^-5^-5^-5^---------------------------|



RIFF 5

D#|--------------------------------------------------|
A#|--------------------------------------------------|
F#|--------------------------------------------------|
C#|-------------6-------------6-------------6--------|
G#|-------------6-------------6-------------6--------|
C#|-5p0-0-5p0-0-6-5p0-0-5p0-0-6-5p0-0-5p0-0-6--------|





D#|--------------------------------------------------|
A#|--------------------------------------------------|
F#|--------------------------------------------------|
C#|--------------------------------------------------|
G#|--------------------------------------------------|
C#|--5p0-0-5p0-0---0-0-------------------------------|


RIFF 6

D#|-----------------------------------------------------|
A#|-----------------------------------------------------|
F#|-----------------------------------------------------|
C#|-----------------------------------------------------|
G#|-----------------------------------------------------|
C#|-5p0--0--5p0--0---5p0-5p0--0--5p0---0---5p0-5p0---0--|


D#|--------------------------------------¦    ¦----------|
A#|--------------------------------------¦    ¦----------|
F#|--------------------------------------¦    ¦----------|
C#|------------------------------------6-¦4X  ¦---6-/----|
G#|------------------------------------6-¦    ¦---6-/----|
C#|--5p0---0---5p0-5p0--0---5p0---0----6-¦    ¦---6-/----|
                            I HATE THIS!!!!          END


ORDER

RIFF 1  8X
RIFF 2  2X
RIFF 3      (VERSE)
RIFF 4  2X  (CHORUS)
RIFF 2  2X
RIFF 3      (VERSE)
RIFF 4  2X  (CHORUS)
RIFF 1  4X
RIFF 5  4X
RIFF 4  2X  (CHORUS)
RIFF 6
END     
Добавлено: 24.08.2013
Другие материалы по этой песне:
  • Аккорды и текст

Страница создана 24.08.2013
http://primanota.ru/static-x-2/this-is-not-chords.htm
Привет, Гость.
Предлагаем пройти революционный курс по гитаре.
Подарок от PrimaNota.Ru, забирай!