PrimaNota.ru - самый крупный в мире бесплатный архив песенных текстов, аккордов, табулатур и нот


Static X - Burning Inside - текст песни, таба, видео

Регистрация Запомнить меня
Войти через:  Facebook Google Twitter Vk Yandex Mail.ru

Static X - Burning Inside - текст песни, таба, видео

Печатать
Просмотров: 93
Уроки эстрадного вокала в Санкт-Петербурге
As recorded by Static-X feat. Fear Factory
(From the 2002 Album THE CROW: SALVATION (SOUNDTRACK))

Transcribed by Adam Ray
	

Words by Wayne Static Music by Static-X and Burton C. Bell
Arranged by Static-X

E5
2 2 2 x x x
	
F5
3 3 3 x x x
	
D5
0 0 0 x x x

Gtr I (C G C F A D) - 'Distortion Guitar'

 Intro
  Q=150
 4/4
  Gtr I
  Wx6
|--------|
|--------|
|--------|
|--------|
|--------|
|--------|


  F5 E5          F5E5          F5E5          F5E5  D5 F5
   E E H.        E E H.        E E H.        E E E Q  E E E
|--------------|-------------|-------------|----------------|
|--------------|-------------|-------------|----------------|
|--------------|-------------|-------------|----------------|
|-/3-2---------|-3-2---------|-3-2---------|-3-2-2-0--3-3-3-|
|-/3-2---------|-3-2---------|-3-2---------|-3-2-2-0--3-3-3-|
|-/3-2---------|-3-2---------|-3-2---------|-3-2-2-0--3-3-3-|


  F5E5          F5E5          F5E5          F5E5  D5 F5
  E E H.        E E H.        E E H.        E E E Q  E E E
|-------------|-------------|-------------|----------------||
|-------------|-------------|-------------|----------------||
|-------------|-------------|-------------|----------------||
|-3-2---------|-3-2---------|-3-2---------|-3-2-2-0--3-3-3-||
|-3-2---------|-3-2---------|-3-2---------|-3-2-2-0--3-3-3-||
|-3-2---------|-3-2---------|-3-2---------|-3-2-2-0--3-3-3-||


   Verse
    F5E5          F5E5          F5E5          F5E5  D5 F5
    E E H.        E E H.        E E H.        E E E Q  E E E   4x
||--------------|-------------|-------------|------------------||
||o-------------|-------------|-------------|-----------------o||
||--------------|-------------|-------------|------------------||
||--3-2---------|-3-2---------|-3-2---------|-3-2-2-0--3-3-3---||
||o-3-2---------|-3-2---------|-3-2---------|-3-2-2-0--3-3-3--o||
||--3-2---------|-3-2---------|-3-2---------|-3-2-2-0--3-3-3---||


   Chorus 1
    F5E5          F5E5          F5E5          F5E5  D5 F5
    E H..         E H..         E H..         E E E Q  E E E
||--------------|-------------|-------------|------------------||
||o-------------|-------------|-------------|-----------------o||
||--------------|-------------|-------------|------------------||
||--3-2---------|-3-2---------|-3-2---------|-3-2-2-0--3-3-3---||
||o-3-2---------|-3-2---------|-3-2---------|-3-2-2-0--3-3-3--o||
||--3-2---------|-3-2---------|-3-2---------|-3-2-2-0--3-3-3---||


  F5E5  N.C.              F5E5  N.C.
        PM----------|           PM----------|
  E E E S S S S S S E E   E E E S S S S S S E E
|-----------------------|-----------------------|
|-----------------------|-----------------------|
|-----------------------|-----------------------|
|-3-2-------------------|-3-2-------------------|
|-3-2-------------------|-3-2-------------------|
|-3-2---2-2-2-2-2-2-2---|-3-2---2-2-2-2-2-2-2---|


  F5E5  N.C.              F5E5  D5 F5
        PM----------|
  E E E S S S S S S E E   E E E Q  E E E
|-----------------------|----------------|
|-----------------------|----------------|
|-----------------------|----------------|
|-3-2-------------------|-3-2-2-0--3-3-3-|
|-3-2-------------------|-3-2-2-0--3-3-3-|
|-3-2---2-2-2-2-2-2-2---|-3-2-2-0--3-3-3-|


  F5E5  N.C.              F5E5  N.C.
        PM----------|           PM----------|
  E E E S S S S S S E E   E E E S S S S S S E E
|-----------------------|-----------------------|
|-----------------------|-----------------------|
|-----------------------|-----------------------|
|-3-2-------------------|-3-2-------------------|
|-3-2-------------------|-3-2-------------------|
|-3-2---2-2-2-2-2-2-2---|-3-2---2-2-2-2-2-2-2---|


  F5E5  N.C.              F5E5
        PM----------|
  E E E S S S S S S E E   E H..
|-----------------------|----------||
|-----------------------|----------||
|-----------------------|----------||
|-3-2-------------------|-3-2------||
|-3-2-------------------|-3-2------||
|-3-2---2-2-2-2-2-2-2---|-3-2------||


   Verse
    F5E5          F5E5          F5E5          F5E5  D5 F5
    E E H.        E E H.        E E H.        E E E Q  E E E   4x
||--------------|-------------|-------------|------------------||
||o-------------|-------------|-------------|-----------------o||
||--------------|-------------|-------------|------------------||
||--3-2---------|-3-2---------|-3-2---------|-3-2-2-0--3-3-3---||
||o-3-2---------|-3-2---------|-3-2---------|-3-2-2-0--3-3-3--o||
||--3-2---------|-3-2---------|-3-2---------|-3-2-2-0--3-3-3---||


   Chorus 2
    E5    D5 F5      E5    D5 F5      E5    D5 F5      E5    D5 F5
    E E E Q  E E E   E E E Q  E E E   E E E Q  E E E   E E E Q  E E E
||-----------------|----------------|----------------|------------------||
||o----------------|----------------|----------------|-----------------o||
||-----------------|----------------|----------------|------------------||
||--2-2-2-0--3-3-3-|-2-2-2-0--3-3-3-|-2-2-2-0--3-3-3-|-2-2-2-0--3-3-3---||
||o-2-2-2-0--3-3-3-|-2-2-2-0--3-3-3-|-2-2-2-0--3-3-3-|-2-2-2-0--3-3-3--o||
||--2-2-2-0--3-3-3-|-2-2-2-0--3-3-3-|-2-2-2-0--3-3-3-|-2-2-2-0--3-3-3---||


    F5E5  N.C.              F5E5  N.C.
          PM----------|           PM----------|
    E E E S S S S S S E E   E E E S S S S S S E E
||------------------------|-----------------------|
||o-----------------------|-----------------------|
||------------------------|-----------------------|
||--3-2-------------------|-3-2-------------------|
||o-3-2-------------------|-3-2-------------------|
||--3-2---2-2-2-2-2-2-2---|-3-2---2-2-2-2-2-2-2---|


  F5E5  N.C.              F5E5  D5 F5
        PM----------|
  E E E S S S S S S E E   E E E Q  E E E
|-----------------------|-------------------||
|-----------------------|------------------o||
|-----------------------|-------------------||
|-3-2-------------------|-3-2-2-0--3-3-3----||
|-3-2-------------------|-3-2-2-0--3-3-3---o||
|-3-2---2-2-2-2-2-2-2---|-3-2-2-0--3-3-3----||


   Verse
    $
    F5E5          F5E5          F5E5          F5E5  D5 F5
    E E H.        E E H.        E E H.        E E E Q  E E E   4x
||--------------|-------------|-------------|------------------||
||o-------------|-------------|-------------|-----------------o||
||--------------|-------------|-------------|------------------||
||--3-2---------|-3-2---------|-3-2---------|-3-2-2-0--3-3-3---||
||o-3-2---------|-3-2---------|-3-2---------|-3-2-2-0--3-3-3--o||
||--3-2---------|-3-2---------|-3-2---------|-3-2-2-0--3-3-3---||


   Chorus 3
                                                               To Coda
    E5    D5 F5      E5    D5 F5      E5    D5 F5      E5    D5 F5
    E E E Q  E E E   E E E Q  E E E   E E E Q  E E E   E E E Q  E E E
||-----------------|----------------|----------------|------------------||
||o----------------|----------------|----------------|-----------------o||
||-----------------|----------------|----------------|------------------||
||--2-2-2-0--3-3-3-|-2-2-2-0--3-3-3-|-2-2-2-0--3-3-3-|-2-2-2-0--3-3-3---||
||o-2-2-2-0--3-3-3-|-2-2-2-0--3-3-3-|-2-2-2-0--3-3-3-|-2-2-2-0--3-3-3--o||
||--2-2-2-0--3-3-3-|-2-2-2-0--3-3-3-|-2-2-2-0--3-3-3-|-2-2-2-0--3-3-3---||


  E5
  W          +W           +W           +W
|----------|------------|------------|------------|
|----------|------------|------------|------------|
|----------|------------|------------|------------|
|-2--------|-(2)--------|-(2)--------|-(2)--------|
|-2--------|-(2)--------|-(2)--------|-(2)--------|
|-2--------|-(2)--------|-(2)--------|-(2)--------|


                                 D.S. al Coda
  +W           +W           +W           +W
|------------|------------|------------|---------||
|------------|------------|------------|---------||
|------------|------------|------------|---------||
|-(2)--------|-(2)--------|-(2)--------|-(2)-----||
|-(2)--------|-(2)--------|-(2)--------|-(2)-----||
|-(2)--------|-(2)--------|-(2)--------|-(2)-----||


   Outro
    &
    F5E5          F5E5          F5E5          F5E5  D5 F5
    E E H.        E E H.        E E H.        E E E Q  E E E   4x
||--------------|-------------|-------------|------------------||
||o-------------|-------------|-------------|-----------------o||
||--------------|-------------|-------------|------------------||
||--3-2---------|-3-2---------|-3-2---------|-3-2-2-0--3-3-3---||
||o-3-2---------|-3-2---------|-3-2---------|-3-2-2-0--3-3-3--o||
||--3-2---------|-3-2---------|-3-2---------|-3-2-2-0--3-3-3---||



Duration Legend
---------------
W - whole; H - half; Q - quarter; E - 8th; S - 16th; T - 32nd; X - 64th; a - acciaccatura
+ - note tied to previous; . - note dotted; .. - note double dotted
Uncapitalized letters represent notes that are staccato (1/2 duration)
Irregular groupings are notated above the duration line
Duration letters will always appear directly above the note/fret number it represents the
duration for.  Duration letters with no fret number below them represent rests.  Multi-
bar rests are notated in the form Wxn, where n is the number of bars to rest for.  Low
melody durations appear below the staff

Tablature Legend
----------------
 h   - hammer-on
 p   - pull-off
 b   - bend
 pb  - pre-bend
 r   - bend release (if no number after the r, then release immediately)
 /\  - slide into or out of (from/to "nowhere")
 s   - legato slide
 S   - shift slide
 - natural harmonic
[n]  - artificial harmonic
n(n) - tapped harmonic
 ~   - vibrato
 tr  - trill
 T   - tap
 TP  - trem. picking
 PM  - palm muting
\n/  - tremolo bar dip; n = amount to dip
 \n  - tremolo bar down
 n/  - tremolo bar up
/n\  - tremolo bar inverted dip
 =   - hold bend; also acts as connecting device for hammers/pulls
 <> - volume swell (louder/softer)
 x   - on rhythm slash represents muted slash
 o   - on rhythm slash represents single note slash

Misc Legend
-----------
 |  - bar
||  - double bar
||o - repeat start
o|| - repeat end
*|  - double bar (ending)
 :  - bar (freetime)
 $  - Segno
 &  - Coda
Tempo markers -  = BPM(8/16=s8/s16), where s8 = swing 8ths, s16 = swing 16ths

Добавлено: 06.07.2013
Другие материалы по этой песне:
  • Аккорды и текст

Страница создана 06.07.2013
http://primanota.ru/static-x-2/burning-inside-chords.htm
Привет, Гость.
Предлагаем пройти революционный курс по гитаре.
Подарок от PrimaNota.Ru, забирай!