PrimaNota.ru - самый крупный в мире бесплатный архив песенных текстов, аккордов, табулатур и нот


Sponge bob - Gary Komm Heim - Gary Come Home - таба, видео

Регистрация Запомнить меня
Войти через:  Facebook Google Twitter Vk Yandex Mail.ru

Sponge bob - Gary Komm Heim - Gary Come Home - таба, видео

Печатать
Просмотров: 230
Уроки эстрадного вокала в Санкт-Петербурге
-------------------------------------------------------------------------------
                             Gary Komm Heim
-------------------------------------------------------------------------------
Tabbed by:Hannic
Tuning:E A D G B E

Strophe(Teil 1)
      D#   D#   C#   C#
e|------------------------|
B|----8----8----6----6----|
G|----8----8----6----6----|
D|----8----8----6----6----|
A|----6----6----4----4----|
E|------------------------|

Zwischenspiel (mit Wah Wah Pedal)
e|------------------------|
B|----9----9-----4----8---|
G|----11---10----5----8---|
D|----11---11----6----8---|
A|--------------------6---|
E|------------------------|

Strophe (Teil 2)
      C#   C#   Em   A#
e|------------------------|
B|----6----8----9----6----|
G|----6----8----10---7----| x3
D|----6----8----10---8----|
A|----4----6--------------|
E|------------------------|

"Refrain"
      C#   D#   D#   D#   C#   C#
e|----------------------------------|
B|----6----8----8----8----6----6----|
G|----6----8----8----8----6----6----|
D|----6----8----8----8----6----6----|
A|----4----6----6----6----4----4----|
E|----------------------------------|


Lyrics:
                    D#                     D#               C#           C#
Strope(1):Gary, ich weiß es war falsch von mir,nun sitz ich ganz alleine hier.


(Zwischenspiel)

                            C#              D#            Em                  A#
Strophe(2):Gary, es tut mir Leid ich war gemein und unachtsam,das darf nicht sein.


                       C#            D#             Em        A#
Strophe(2):Nun bist du weg und alles ist so leer in mir.

                  
                   C#         D#                Em            A#
Strope(2):Dein Miauen war für mich die schönste Melodie,


                        C#               D#                   D#
Refrain: komm Heim denn ich vermiss dich so, Gary.


      D#           C#          C#
Gary komm Heim.

  
                       D#                   D#                   C#                     C#
Strophe (1)Gary kannst du mir denn nicht verzeihen,ich fleh dich an lass mich nicht allein.


(Zwischenspiel) Gary!

                         C#                 D#                  Em                  A#
Strophe(2):Du warst mein Freund mein ganzes Glück,bitte komm zurück, du weißt doch, du

                     C#             D#               Em           A#
Strophe(2)gehörst zu mir,es tut mir Leid begrab doch deinen Groll,denn

                           C#                D#            Em               A#
Strophe(2)nun schlägt mein Herz ganz traurig,wie ein Metronom in Moll.

                    C#             D#                 Em                    A#         C#
Strophe(2)Ich widme dir dieses Gedicht, leider hat es keinen Reim.,

              D#           D#          
Refrain: Gary komm Heim!


      D#        C#      C#
Gary komm Heim.


************************************

The english version is a little bit higher than the german version
Добавлено: 30.05.2016
Другие материалы по этой песне:
  • Аккорды и текст

Страница создана 30.05.2016
http://primanota.ru/sponge-bob/gary-komm-heim-gary-come-home-chords.htm
Привет, Гость.
Предлагаем пройти революционный курс по гитаре.
Подарок от PrimaNota.Ru, забирай!