PrimaNota.ru - самый крупный в мире бесплатный архив песенных текстов, аккордов, табулатур и нот


Sponge bob - Jellyfish Jam - таба, видео

Регистрация Запомнить меня
Войти через:  Facebook Google Twitter Vk Yandex Mail.ru

Sponge bob - Jellyfish Jam - таба, видео

Печатать
Просмотров: 93
Уроки эстрадного вокала в Санкт-Петербурге
-------------------------------------------------------------------------------
                        Yellyfish Jam - Spongebob Squarepants
-------------------------------------------------------------------------------

Tabbed by: Shyguybro

Taken from Spongebob by ear

First tab ever!


Standard tuning: EADGBe

e|------------------------------------------------------------------|
B|---------------------------------------------1-0------------------|
G|------2-------------2---------------2-------------3-1-------------|
D|--3-----3-1--3----3---3-1-1-3---3------3-1-3----------------------| x 2
A|------------------------------------------------------------------|
E|------------------------------------------------------------------|

e|-----------------|
B|----------0------|
G|--3---3-----3-3--|
D|-----------------| x 2
A|-----------------|
E|-----------------|

e|---------------------------------------------------------------|
B|---------------------------------------------------------------|
G|---------------------------------------------------------------|
D|------2---3-2------2---3-2---------0---1--0------0---1-0-------|
A|--3-3---3--------3---3---------1-1---1---------1---1-----------|
E|---------------------------------------------------------------|

e|------------------------------------------------------------------|
B|---------------------------------------------1-0------------------|
G|------2-------------2---------------2-------------3-1-------------|
D|--3-----3-1--3----3---3-1-1-3---3------3-1-3----------------------| 
A|------------------------------------------------------------------|
E|------------------------------------------------------------------|
Добавлено: 30.05.2016
Другие материалы по этой песне:
  • Аккорды и текст

Страница создана 30.05.2016
http://primanota.ru/sponge-bob/jellyfish-jam-chords.htm
Привет, Гость.
Предлагаем пройти революционный курс по гитаре.
Подарок от PrimaNota.Ru, забирай!