PrimaNota.ru - самый крупный в мире бесплатный архив песенных текстов, аккордов, табулатур и нот


Soundgarden - Day I Tried To Love - бас-таба, видео

Регистрация Запомнить меня
Войти через:  Facebook Google Twitter Vk Yandex Mail.ru

Soundgarden - Day I Tried To Love - бас-таба, видео

Печатать
Просмотров: 117
Уроки эстрадного вокала в Санкт-Петербурге
Soundgarden:
The Day I Tried to Live

Verse:
G|---------------------------------------------------|
D|---------------------------------------------------|
A|-7-7-7-7-7-7---6—--5—--4---3-3-3-3-3-3-2---1--0-0-0|
E|-----------------0---0---0---------------0---0-----|

Chorus:
G|----------|
D|-----2----|
A|-2-3---4--|
E|----------|

Bridge:
G|------------------------------------------------|
D|------------------------------------------------|
A|-4-4-4-4-4-3--2--1--0--0-0-0-0------------------|
E|------------0--0--0--0---------4-0-3-3-3-3-3----|

This song is my favorite of all Soundgarden's stuff… And the bass line is awesome, so I 
this tab with a little help from my friend. It should be around 99% complete. Some 
and everything might be off but that's it… my E-mail is dam_bacci@hotmail.com if you have any questions.
Добавлено: 22.06.2013
Другие материалы по этой песне:
  • Аккорды и текст

Страница создана 22.06.2013
http://primanota.ru/soundgarden/day-i-tried-to-love-chords.htm
Привет, Гость.
Предлагаем пройти революционный курс по гитаре.
Подарок от PrimaNota.Ru, забирай!