PrimaNota.ru - самый крупный в мире бесплатный архив песенных текстов, аккордов, табулатур и нот


Soundgarden - Burden in My Hand - аккорды и текст, таба, бас-таба, видео

Регистрация Запомнить меня
Войти через:  Facebook Google Twitter Vk Yandex Mail.ru

Soundgarden - Burden in My Hand - аккорды и текст, таба, бас-таба, видео

Печатать
Просмотров: 179
Burden in My Hand
Soundgarden
Tuning: Cgcg 
first 16 bars , no bass pre chorus (oh no ....there she goes)

g-------|--5--5--5----4--4--4----0h5p3p0--|
c-------|---------------------------------|
g-------|---------------------------------|
C-------|---------------------------------|

g------------------------5--5--5---4--4--4-------------|
c--3-----3---x--5--5--5-----------------------0h3h5p3--|
g------------------------------------------------------|
C------------------------------------------------------|

g--5--------------------------------------|--5-----5----------------|
c-------5--3----2p0-----------5--3--5--3--|-----5-----5--3--5--3----|
g--------------------3--------------------|-------------------------|
C-----------------------5--5--------------|-------------------------|
repeat once

g-----5--3--|
c--0--------|
g-----------|
C-----------|

chorus
g-------12------12-------------------------------10------10------10-|
c--/12------12------12-15p12----------1210---10-----10------10-----|
g-----------------------------14--12--------------------------------|
C-------------------------------------------------------------------|

g--10--8---8--8--83---3--3---3--3/10--0--6--5----5--5---5--5--5--|
c--10--8---8--8--83---3--3---3--3/10--0--6--5----5--5---5--5--5--|
g-----------------------------------------------------------------|
C-----------------------------------------------------------------|

g------12-----------------------------12-----10--10--10--10--10--10--|
c--/12----12--15p12--12---------15p12-----1210----------------------|
g------------------------14p12---------------------------------------|
C--------------------------------------------------------------------|

g--10--10--8---8--8--83---3--3---3--3/10--0--6--5---5--5---5--5--5--|
c--10--10--8---8--8--83---3--3---3--3/10--0--6--5---5--5---5--5--5--|
g--------------------------------------------------------------------|
C--------------------------------------------------------------------|

g--/10--0--6--5----5--5---5--5--5------12------------------------12----|
c--/10--0--6--5----5--5---5--5--5--/12----12--15p12--------15p12----12|
g----------------------------------------------------14p12-------------|
C----------------------------------------------------------------------|

g--10---10--10-10----10-10-10-10---8----8---8--83---3--3---3--3/10--|
c--10---10--10-10----10-10-10-10---8----8---8--83---3--3---3--3/10--|
g--------------------------------------------------------------------|
C--------------------------------------------------------------------|

g--0--6--5---5--5---5--5-------------5-----------------|
c--0--6--5---5--5---5--5-------------------------------|
g--------------------------85---5---5--------------7--|
C------------------------------------------------------|

g-------------------------3---------------------5------------|
c-------------------------------3--3-------------------------|
g--8--8-----------83--3--3--x---------5--5--5--5---------0--|
C-------------------------------3--3-------------------------|

g--------5-------------------------83--3-----------------|
c---------------------------------------------3--3--------|
g--5--5--5--------7----8--8----------3--3-------------3/5-|
C---------------------------------------------3--3--------|

g--------5------------------5-------------------------------------|
c--------------------------------------------------7-----6--------|
g--5--5--5---------0--5--5--5------------7--8---8-----------7--5--|
C-----------------------------------------------------------------|

g--------3------------------------5------------------5-------------|
c----------------3--3----------------------------------------------|
g--3--3--3----x-----------3/5--5--5---------0--5--5--5----------7--|
C----------------3--3----------------------------------------------|

g------------------------------3---------------------------5--------|
c----------7b-------7------------------3--3-------------------------|
g--8-------------------83--3--3----x--------------3/5--5--5------5-|
C--------------------------------------3--3-------------------------|

g-----12--------------------------------------------|
c-/12-----12--15p12--12---------12h15--12h15p1210--|
g------------------------14p12----------------------|
C---------------------------------------------------|

g--10--10--10---10--10--10------10--10--10--10--8----8--83-------3---|
c--10--10--10---10--10--10------10--10--10--10--8----8--83---3-3---3/|
g---------------------------------------------------------------------|
C---------------------------------------------------------------------|

g--10--0--6--5--------5--------12--------------------------------------|
c--10--0--6--5--5--5-----5/12------12--15p12--12--------12h15-12h15p12|
g-------------------------------------------------14p12----------------|
C----------------------------------------------------------------------|

g-----10--10--10---10--10---10--10--10--10--8--------------------3-----|
c-10-10--10--10---10--10---10--10--10--10--8----8--8--83--3--3---3/--|
g----------------------------------------------------------------------|
C----------------------------------------------------------------------|

g--10--0--6--5---------5--------12--------------------------12---------|
c-10--0--6--5---5--5-----5/12----12--15p12--12------12h15----12h15p12|
g-----------------------------------------------14p12------------------|
C----------------------------------------------------------------------|

g-----10-10-10--10-10---10-10-10-10---8---8--83----3------3------|
c-10-10-10-10--10-10---10-10-10-10---8---8--83-------3-------3/-|
g-----------------------------------------------------------------|
C-----------------------------------------------------------------|

                               BRIDGE
g-/10---0--6--5----------5----|-8---8--8---------------------|
c-/10---0--6--5----5--5-----5/|/8---8--8-----------------8--|
g-----------------------------|------------------------------|
C-----------------------------|------------------------------|

g--0---0--0------------------------------------------------------|
c----0--0---------------3---3--3----------(3)/6----------------|
g----------------------------------------------------------------|
C-------------------------3---3--3----------(3)/6----------------|

g--0----0--0-----------3---3--3-----3/10--0--6--5----------------|
c--0----0--0-----------3---3--3-----3/10--0--6--5---5--5---5--5--|
g----------------------------------------------------------------|
C----------------------------------------------------------------|

3rd verse
g--------5---------------------8-------------------3-------------------|
c----------------------------------------------------------3--3--------|
g--5--5--5----------7----8--8--8----------83--3---3----x----------3/--|
C----------------------------------------------------------3--3--------|

g--------5---------------------5---------------------5-----------------|
c----------------------------------------------------------------------|
g-/5--5--5----------0----5--5--5----------0----5--5--5----------5---7--|
C----------------------------------------------------------------------|

g-----------------------------------------------------------------|
c------------------------------------3---3------------------------|
g--6----6/8----6---5----3---3--3-------------0--3---5---5---------|
C------------------------------------3---3------------------------|

g--------------------------------------------5--5--5---4--4--4--|
c--3--3--3--3---3--3--3---5--5--5---5--5------------------------|
g---------------------------------------------------------------|
C---------------------------------------------------------------|

g--0h5p3p0-------------------------------------------|
c------------3--3--3--3---3--3--3--5--5--5--5--5--5--|
g----------------------------------------------------|
C----------------------------------------------------|

g--5--5--5---4--4--4------------5---------------------|
c----------------------0h3h5p3------5---3----2p0------|
g--------------------------------------------------3--|
C-----------------------------------------------------|

g--5-----5-----------------5-----5---------------|
c-----5-----5--3----5--3------5-----5--3---5--3--|
g------------------------------------------------|
C------------------------------------------------|

g--5-----5-------------------------5---3----------------|
c-----5-----5---3---5---3-----0-------------------------|
g-------------------------------------------------------|
C-------------------------------------------------------|

g--8----8--83-----3-------3-----10--0--6--5-----5--5-------5--3--|
c--8----8--83--------3--------3/10--0--6--5-----5--5---5-------|
g-----------------------------------------------------------------|
C-----------------------------------------------------------------|

I think that's it...Enjoy.
Добавлено: 06.06.2012
Другие материалы по этой песне:

Страница создана 07.03.2012
http://primanota.ru/soundgarden/burden-in-my-hand-chords.htm
Привет, Гость.
Предлагаем пройти революционный курс по гитаре.
Подарок от PrimaNota.Ru, забирай!