PrimaNota.ru - самый крупный в мире бесплатный архив песенных текстов, аккордов, табулатур и нот


Soundgarden - Come Together - таба, видео

Регистрация Запомнить меня
Войти через:  Facebook Google Twitter Vk Yandex Mail.ru

Soundgarden - Come Together - таба, видео

Печатать
Просмотров: 173
Авторы: John Lennon, Paul McCartney

Soundgarden - Come Together (Beatles Cover)
Album: Hands All Over Single
Drop D Tuning

-=Intro=-

e|-----------------------------------------------------|
B|-----------------------------------------------------|
G|-----------------------------------------------------|
D|---2-2-------2-2-------2-2-------2-2------15/--------|
A|---2-2-------2-2-------2-2-------2-2------15/--------|
D|---2-2-------2-2-------2-2-------2-2------15/--------|


-=Verse=-

Play Twice

e|--------------------|
B|--------------------|
G|------------10b-----|
D|--2-2--7s9----------|
A|--2-2---------------|
D|--2-2---------------|x10 

e|-------------------------------------------------------------------|
B|-------------------------------------------------------------------|
G|-------------------------------------------------------------------|
D|-2-2-2-2-7-9--(9)-----2--2--5-7--(7)-----5b--5b--5b--5b--5b--------|
A|-2-2-2-2-7-9--(9)-----2--2--5-7--(7)-------------------------------|
D|-2-2-2-2-7-9--(9)-----2--2--5-7--(7)-------------------------------|


-=Chorus=-

e|----------------------------------------------------------|
B|----------------------------------------------------------|
G|--4s6----6s2--0h2-----2--2----4s6----6s2--0h2-----2--2----|
D|--4s6----6s4--0h2-----2--2----4s6----6s4--0h2-----2--2----|
A|--2s4----4s4--0-------0--0----2s4----4s4--0-------0--0----|
D|----------------------------------------------------------|

e|--------------------|
B|--------------------|
G|--4s6----6s2--0h2---|
D|--4s6----6s4--0h2---|
A|--2s4----4s4--0-----|
D|--------------------|


-=Verse 2=-

e|--------------------|
B|--------------------|
G|------------10b-----|
D|--2-2--7s9----------|
A|--2-2---------------|
D|--2-2---------------|x10 

e|-------------------------------------------------------------------|
B|-------------------------------------------------------------------|
G|-------------------------------------------------------------------|
D|-2-2-2-2-7-9--(9)-----2--2--5-7--(7)-----5b--5b--5b--5b--5b--------|
A|-2-2-2-2-7-9--(9)-----2--2--5-7--(7)-------------------------------|
D|-2-2-2-2-7-9--(9)-----2--2--5-7--(7)-------------------------------|


-=Chorus=-

e|----------------------------------------------------------|
B|----------------------------------------------------------|
G|--4s6----6s2--0h2-----2--2----4s6----6s2--0h2-----2--2----|
D|--4s6----6s4--0h2-----2--2----4s6----6s4--0h2-----2--2----|
A|--2s4----4s4--0-------0--0----2s4----4s4--0-------0--0----|
D|----------------------------------------------------------|

e|--------------------|
B|--------------------|
G|--4s6----6s2--0h2---|
D|--4s6----6s4--0h2---|
A|--2s4----4s4--0-----|
D|--------------------|


-=Pre-Solo=-

e|-----------------------------|
B|-----------------------------|
G|-----------------------------|
D|--5-5-5-5-5-2-2-5--2--5--2---|
A|--5-5-5-5-5-2-2-5--2--5--2---|
D|--5-5-5-5-5-2-2-5--2--5--2---|x2
    * * * * * * * *  *  *  *

-=Solo=-

Kim Thayil is crazy.


-=Verse 3=-

e|--------------------|
B|--------------------|
G|------------10b-----|
D|--2-2--7s9----------|
A|--2-2---------------|
D|--2-2---------------|x10

e|-------------------------------------------------------------------|
B|-------------------------------------------------------------------|
G|-------------------------------------------------------------------|
D|-2-2-2-2-7-9--(9)-----2--2--5-7--(7)-----5b--5b--5b--5b--5b--------|
A|-2-2-2-2-7-9--(9)-----2--2--5-7--(7)-------------------------------|
D|-2-2-2-2-7-9--(9)-----2--2--5-7--(7)-------------------------------|


-=Chorus 2=-

e|----------------------------------------------------------|
B|----------------------------------------------------------|
G|--4s6----6s2--0h2-----2--2----4s6----6s2--0h2-----2--2----|
D|--4s6----6s4--0h2-----2--2----4s6----6s4--0h2-----2--2----|
A|--2s4----4s4--0-------0--0----2s4----4s4--0-------0--0----|
D|----------------------------------------------------------|

e|--------------------|
B|--------------------|
G|--4s6----6s2--0h2---|
D|--4s6----6s4--0h2---|
A|--2s4----4s4--0-----|
D|--------------------|


-=Outro=-

Kim Thayil is still crazy.

All I can get out of the solo and outro is this

e|----------------------|
B|--12---12-------------|
G|--14b--14br--12--14~--|
D|----------------------|
A|----------------------|
D|----------------------|
Добавлено: 07.07.2013
Другие материалы по этой песне:
  • Аккорды и текст

Страница создана 01.07.2013
http://primanota.ru/soundgarden/come-together-chords.htm
Привет, Гость.
Предлагаем пройти революционный курс по гитаре.
Подарок от PrimaNota.Ru, забирай!