PrimaNota.ru - самый крупный в мире бесплатный архив песенных текстов, аккордов, табулатур и нот


Soulfly - Execution Style - текст песни, таба, видео

Регистрация Запомнить меня
Войти через:  Facebook Google Twitter Vk Yandex Mail.ru

Soulfly - Execution Style - текст песни, таба, видео

Печатать
Просмотров: 139
-------------------------------------------------------------------------------
			     EXECUTION STYLE - Soulfly
-------------------------------------------------------------------------------
Tabbed by: Stoten123
Email: jamesstoten@hotmail.com

Tuning: Drop B (B F# B E G# C#)

Intro:
Gtr. 1
C#|---------------------------------|
G#|---------------------------------|
E |---------------------------------|
B |---------------------------------|
F#|-0-------1-------1p0-------------| x2
B |-0-------1-------1p0-------------|

Gtr. 2
C#|-16p14-15p14-16p14-15p14-16p14-15p14-15p14-15p14-|
G#|-------------------------------------------------|
E |-------------------------------------------------|
B |-------------------------------------------------|
F#|-------------------------------------------------| x2
B |-------------------------------------------------|

Both guitars
C#|---------------------------------|
G#|---------------------------------|
E |-2-------3-------2\3-------------|
B |-2-------3-------2\3-------------|
F#|-0-------1-------1\0-------------| x4
B |-----0-0-----0-0-----0-0-0-0-0-0-|
   PM   - -     - -     - - - - - -

Verse: "The execution of the
 world is set..."
C#|---------------------------------|
G#|---------------------------------|
E |---------------------------------|
B |-2-------3\2-----2-------3\2-----|
F#|-0-------1\0-----0-------1\0-----| x4
B |-----0-0-----0-0-----0-0-----0-0-|
   PM   - -     - -     - -     - - 

Chorus: "Ready, aim, fire!..."
C#|---------------------------------|
G#|---------------------------------|
E |-2-------3-------2\3-------------|
B |-2-------3-------2\3-------------|
F#|-0-------1-------1\0-------------| x4
B |-----0-0-----0-0-----0-0-0-0-0-0-|
   PM   - -     - -     - - - - - -

Bridge:
C#|---------------------------------|
G#|---------------------------------|
E |---------------------------------|
B |---------------------------------|
F#|---------------------------------| x4
B |-0-0-0-0-0-1-3-1-0-0-0-0-0-1-3-1-|
  PM- - - - - - - - - - - - - - - - 

C#|---------------------------------|
G#|---------------------------------|
E |---------------------------------|
B |---------------------------------|
F#|-8-7-7-7-8-7-7-7-8-5-5-5-8-4-4-4-| x4
B |-8-7-7-7-8-7-7-7-8-5-5-5-8-4-4-4-|

   (I cant work out the solo)

Solo Backing:
C#|---------------------------------|
G#|---------------------------------|
E |---------------------------------|
B |---------------------------------|
F#|---------------------------------| x4
B |-0-0-0-0-0-1-3-1-0-0-0-0-0-1-3-1-|
  PM- - - - - - - - - - - - - - - - 

C#|---------------------------------|
G#|---------------------------------|
E |---------------------------------|
B |---------------------------------|
F#|-8-7-7-7-8-7-7-7-8-5-5-5-8-4-4-4-| x4
B |-8-7-7-7-8-7-7-7-8-5-5-5-8-4-4-4-|

Song Orfer:
Intro
Verse
Chorus
Verse
Bridge
Solo
Chorus
Verse
Intro

| \  slide down
| p  pull-off
===============================================================================
Добавлено: 29.10.2013
Другие материалы по этой песне:
  • Аккорды и текст

Страница создана 21.03.2012
http://primanota.ru/soulfly/execution-style-chords.htm
Привет, Гость.
Предлагаем пройти революционный курс по гитаре.
Подарок от PrimaNota.Ru, забирай!