PrimaNota.ru - самый крупный в мире бесплатный архив песенных текстов, аккордов, табулатур и нот


Soulfly - In The Meantime - текст песни, таба, видео

Регистрация Запомнить меня
Войти через:  Facebook Google Twitter Vk Yandex Mail.ru

Soulfly - In The Meantime - текст песни, таба, видео

Печатать
Просмотров: 96
Авторы музыки: Page Hamilton
Авторы текста: Page Hamilton
Intro

E|--------------------------------|--------------------------------|
B|--------------------------------|--------------------------------|
G|--------------------------------|--------------------------------|
D|0---------------1---------------|2---------------3---------------|
A|0---------------1---------------|2---------------3---------------|
D|--------------------------------|--------------------------------|

E|--------------------------------|----------------|
B|--------------------------------|----------------|
G|--------------------------------|----------------|
D|4---------------5---------------|6---------------|
A|4---------------5---------------|6---------------|
D|--------------------------------|----------------|

E|--------------------------------|--------------------------------|
B|--------------------------------|--------------------------------|
G|--------------------------------|--------------------------------|
D|0-------------------------------|--------------------------------|
A|0-------------------------------|--------------------------------|
D|0-------------------------------|--------------------------------|

E|--------------------------------|--------------------------------|
B|--------------------------------|--------------------------------|
G|--------------------------------|--------------------------------|
D|0-------------------------------|--------------------------------|
A|0-------------------------------|--------------------------------|
D|0-------------------------------|--------------------------------|


Part A

E|--------------------------------|--------------------------------|
B|--------------------------------|--------------------------------|
G|--------------------------------|--------------------------------|
D|--------------------------------|--------------------------------|
A|0---3-0-3-5-6-0---0-3-0-3-5-6---|0---3-0-3-5-6-0---0-3-0-3-5-6---|
D|0---3-0-3-5-6-0---0-3-0-3-5-6---|0---3-0-3-5-6-0---0-3-0-3-5-6---|

E|--------------------------------|--------------------------------|
B|--------------------------------|--------------------------------|
G|--------------------------------|--------------------------------|
D|--------------------------------|--------------------------------|
A|0---3-0-3-5-6-0---0-3-0-3-5-6---|0---3-0-3-5-6-0---0-3-0-3-5-6---|
D|0---3-0-3-5-6-0---0-3-0-3-5-6---|0---3-0-3-5-6-0---0-3-0-3-5-6---|


Part B1

E|--------------------------------|--------------------------------|
B|--------------------------------|--------------------------------|
G|--------------------------------|--------------------------------|
D|--------------------------------|--------------------------------|
A|0-0---0-0---0-0---0-0---0-0---0-|0---0-0---0-0---0-0---0-0-------|
D|0-0---0-0---0-0---0-0---0-0---0-|0---0-0---0-0---0-0---0-0---0-0-|

E|--------------------------------|----------------|
B|--------------------------------|----------------|
G|--------------------------------|----------------|
D|--------------------------------|----------------|
A|----0-0---0-0---0-0---0-0---0-0-|--0-0---0-0---0-|
D|0---0-0---0-0---0-0---0-0---0-0-|--0-0---0-0---0-|

E|--------------------------------|
B|--------------------------------|
G|--------------------------------|
D|--------------------------------|
A|3-0-0-5-0-0-6-6-6-6-6-6-6-6-6-6-|
D|3-0-0-5-0-0-6-6-6-6-6-6-6-6-6-6-|


Part B2

E|--------------------------------|--------------------------------|
B|--------------------------------|--------------------------------|
G|--------------------------------|--------------------------------|
D|--------------------------------|--------------------------------|
A|0-0---0-0---0-0---0-0---0-0---0-|0---0-0---0-0---0-0---0-0-------|
D|0-0---0-0---0-0---0-0---0-0---0-|0---0-0---0-0---0-0---0-0---0-0-|

E|--------------------------------|--------------------------------|
B|--------------------------------|--------------------------------|
G|--------------------------------|--------------------------------|
D|--------------------------------|--------------------------------|
A|----0-0---0-0---0-0---0-0---0-0-|--0-0---0-0---0---3-5---3-5---3-|
D|0---0-0---0-0---0-0---0-0---0-0-|--0-0---0-0---0-0-----0-----0---|


Part B3

E|--------------------------------|--------------------------------|
B|--------------------------------|--------------------------------|
G|--------------------------------|--------------------------------|
D|--------------------------------|--------------------------------|
A|0-0---0-0---0-0---0-0---0-0---0-|0---0-0---0-0---0-0---0-0-------|
D|0-0---0-0---0-0---0-0---0-0---0-|0---0-0---0-0---0-0---0-0---0-0-|

E|--------------------------------|--------------------------------|
B|--------------------------------|--------------------------------|
G|--------------------------------|--------------------------------|
D|--------------------------------|--------------------------------|
A|----0-0---0-0---0-0---0-0---0-0-|--0-0---0-0---0-3-0-0-5-0-0-6-6-|
D|0---0-0---0-0---0-0---0-0---0-0-|--0-0---0-0---0-3-0-0-5-0-0-6-6-|


Part A

E|--------------------------------|--------------------------------|
B|--------------------------------|--------------------------------|
G|--------------------------------|--------------------------------|
D|--------------------------------|--------------------------------|
A|0---3-0-3-5-6-0---0-3-0-3-5-6---|0---3-0-3-5-6-0---0-3-0-3-5-6---|
D|0---3-0-3-5-6-0---0-3-0-3-5-6---|0---3-0-3-5-6-0---0-3-0-3-5-6---|

E|--------------------------------|--------------------------------|
B|--------------------------------|--------------------------------|
G|--------------------------------|--------------------------------|
D|--------------------------------|--------------------------------|
A|0---3-0-3-5-6-0---0-3-0-3-5-6---|0---3-0-3-5-6-0---0-3-0-3-5-6---|
D|0---3-0-3-5-6-0---0-3-0-3-5-6---|0---3-0-3-5-6-0---0-3-0-3-5-6---|


Part B3

E|--------------------------------|--------------------------------|
B|--------------------------------|--------------------------------|
G|--------------------------------|--------------------------------|
D|--------------------------------|--------------------------------|
A|0-0---0-0---0-0---0-0---0-0---0-|0---0-0---0-0---0-0---0-0-------|
D|0-0---0-0---0-0---0-0---0-0---0-|0---0-0---0-0---0-0---0-0---0-0-|

E|--------------------------------|--------------------------------|
B|--------------------------------|--------------------------------|
G|--------------------------------|--------------------------------|
D|--------------------------------|--------------------------------|
A|----0-0---0-0---0-0---0-0---0-0-|--0-0---0-0---0-3-0-0-5-0-0-6-6-|
D|0---0-0---0-0---0-0---0-0---0-0-|--0-0---0-0---0-3-0-0-5-0-0-6-6-|


Part A

E|--------------------------------|--------------------------------|
B|--------------------------------|--------------------------------|
G|--------------------------------|--------------------------------|
D|--------------------------------|--------------------------------|
A|0---3-0-3-5-6-0---0-3-0-3-5-6---|0---3-0-3-5-6-0---0-3-0-3-5-6---|
D|0---3-0-3-5-6-0---0-3-0-3-5-6---|0---3-0-3-5-6-0---0-3-0-3-5-6---|

E|--------------------------------|--------------------------------|
B|--------------------------------|--------------------------------|
G|--------------------------------|--------------------------------|
D|--------------------------------|--------------------------------|
A|0---3-0-3-5-6-0---0-3-0-3-5-6---|0---3-0-3-5-6-0---0-3-0-3-5-6---|
D|0---3-0-3-5-6-0---0-3-0-3-5-6---|0---3-0-3-5-6-0---0-3-0-3-5-6---|


Part C1

E|--------------------------------|--------------------------------|
B|--------------------------------|--------------------------------|
G|--------------------------------|--------------------------------|
D|--------5-5-5-4-----------------|--------5-5-5-4-----------------|
A|0-------3-3-3-2-------0-3-0-3-5-|0-------3-3-3-2-------0-3-0-3---|
D|0---------------------0-3-0-3-5-|0---------------------0-3-0-3---|

E|--------------------------------|--------------------------------|
B|--------------------------------|--------------------------------|
G|--------------------------------|--------------------------------|
D|--------5-5-5-4-----------------|--------5-5-5-4-----------------|
A|0-------3-3-3-2-------0-3-0-3-5-|0-------3-3-3-2-------0-3-0-3---|
D|0---------------------0-3-0-3-5-|0---------------------0-3-0-3---|


Part D

E|--------------------------------|--------------------------------|
B|--------------------------------|--------------------------------|
G|--------------------------------|--------------------------------|
D|--------------------------------|--------------------------------|
A|0-0-3-0-3---0-0-3-0-3---0-0-3-5-|0-0-3-0-3---0-0-3-0-3---0-0-3-5-|
D|0-0-3-0-3---0-0-3-0-3---0-0-3-5-|0-0-3-0-3---0-0-3-0-3---0-0-3-5-|

E|--------------------------------|--------------------------------|
B|--------------------------------|--------------------------------|
G|--------------------------------|--------------------------------|
D|--------------------------------|--------------------------------|
A|0-0-3-0-3---0-0-3-0-3---0-0-3-5-|0-0-3-0-3---0-0-3-0-3---0-0-3-5-|
D|0-0-3-0-3---0-0-3-0-3---0-0-3-5-|0-0-3-0-3---0-0-3-0-3---0-0-3-5-|

E|--------------------------------|--------------------------------|
B|--------------------------------|--------------------------------|
G|--------------------------------|--------------------------------|
D|--------------------------------|--------------------------------|
A|----3---3-------3---3-------3-5-|----3---3-------3---3-------3-5-|
D|0-0-3-0-3---0-0-3-0-3---0-0-3-5-|0-0-3-0-3---0-0-3-0-3---0-0-3-5-|

E|--------------------------------|--------------------------------|
B|--------------------------------|--------------------------------|
G|--------------------------------|--------------------------------|
D|--------------------------------|--------------------------------|
A|----3---3-------3---3-------3-5-|----3---3-------3---3-------3-5-|
D|0-0-3-0-3---0-0-3-0-3---0-0-3-5-|0-0-3-0-3---0-0-3-0-3---0-0-3-5-|


Part C2

E|--------------------------------|--------------------------------|
B|--------------------------------|--------------------------------|
G|--------------------------------|--------------------------------|
D|--------5-5-5-4-----------------|--------5-5-5-4-----------------|
A|0-------3-3-3-2-------0-3-0-3-5-|0-------3-3-3-2-------0-3-0-3---|
D|0---------------------0-3-0-3-5-|0---------------------0-3-0-3---|

E|--------------------------------|--------------------------------|
B|--------------------------------|--------------------------------|
G|--------------------------------|--------------------------------|
D|--------5-5-5-4-----------------|--------------------------------|
A|0-------3-3-3-2-------0-3-0-3-5-|--------------------------------|
D|0---------------------0-3-0-3-5-|0-0-0-0-0-0-0-0-0-0-0-0-0-0-0-0-|

E|--------------------------------|--------------------------------|
B|--------------------------------|--------------------------------|
G|--------------------------------|--------------------------------|
D|--------5-5-5-4-----------------|--------5-5-5-4-----------------|
A|0-------3-3-3-2-------0-3-0-3-5-|0-------3-3-3-2-------0-3-0-3---|
D|0---------------------0-3-0-3-5-|0---------------------0-3-0-3---|

E|--------------------------------|--------------------------------|
B|--------------------------------|--------------------------------|
G|--------------------------------|--------------------------------|
D|--------5-5-5-4-----------------|--------5-5-5-4-----------------|
A|0-------3-3-3-2-------0-3-0-3-5-|0-------3-3-3-2-------0-3-0-3---|
D|0---------------------0-3-0-3-5-|0---------------------0-3-0-3---|

E|--------------------------------|--------------------------------|
B|--------------------------------|--------------------------------|
G|--------------------------------|--------------------------------|
D|--------5-5-5-4-----------------|--------5-5-5-4-----------------|
A|0-------3-3-3-2-------0-3-0-3-5-|0-------3-3-3-2-------0-3-0-3---|
D|0---------------------0-3-0-3-5-|0---------------------0-3-0-3---|

E|--------------------------------|--------------------------------|
B|--------------------------------|--------------------------------|
G|--------------------------------|--------------------------------|
D|--------5-5-5-4-----------------|--------5-5-5-4-----------------|
A|0-------3-3-3-2-------0-3-0-3-5-|0-------3-3-3-2-------0-3-0-3-5-|
D|0---------------------0-3-0-3-5-|0---------------------0-3-0-3-5-|

E|--------------------------------|
B|--------------------------------|
G|--------------------------------|
D|--------------------------------|
A|6-------------------------------|
D|6-------------------------------|


Outro



E|--------------------------------|--------------------------------| \\
B|--------------------------------|--------------------------------| \\
G|15------------------------------|12------------------------------| \\
D|--------------------------------|--------------------------------| \\
A|--------------------------------|--------------------------------| \\
D|--------------------------------|--------------------------------| \\
(x6)
E|--------------------------------|--------------------------------| //
B|--------------------------------|--------------------------------| //
G|10--------------9-----------5---|--2-----7-----------------------| //
D|--------------------------------|--------------------------------| //
A|--------------------------------|--------------------------------| //
D|--------------------------------|--------------------------------| //
Добавлено: 20.08.2013
Другие материалы по этой песне:
  • Аккорды и текст

Страница создана 07.04.2012
http://primanota.ru/soulfly/in-the-meantime-chords.htm
Привет, Гость.
Предлагаем пройти революционный курс по гитаре.
Подарок от PrimaNota.Ru, забирай!