PrimaNota.ru - самый крупный в мире бесплатный архив песенных текстов, аккордов, табулатур и нот


Sonata Arctica - Tallulah - аккорды и текст, таба, бас-таба, драм-таба, видео

Регистрация Запомнить меня
Войти через:  Facebook Google Twitter Vk Yandex Mail.ru

Sonata Arctica - Tallulah - аккорды и текст, таба, бас-таба, драм-таба, видео

Печатать
Просмотров: 1114
Tallulah
Sonata Arctica
TALLULAH- SONATA ARCTICA
Acoustic version by sinForge xJp

This IS NOT based on a recording/performance!!
 
Standard Tuning, Capo 4



INTRO:                                                     
  (Csus2)    (Dsus2)  (G5/F#)           (Csus2)  (Dsus2)   (Esus2)      
e||------------------|------------------|------------------|----------------|-
B||------------------|-----3-----3------|------------------|-----0----------|-
G||-------0-------2--|---0-----0---0----|-----0-------2----|----------------|-
D||-----0-------2----|-4-----4-------4--|---0-------2------|-2s4------------|-
A||---3-------5------|------------------|-3-------5--------|----------------|-  
E||------------------|------------------|------------------|----------------|-

  (Csus2)    (Dsus2) (G5/F#)            (Csus2)  (Bm)      
e||------------------|------------------|------------------|-
B||------------------|-----3-----3------|------------------|-
G||-------0-------2--|---0-----0---0----|-----0------------|-
D||-----0-------2----|-4-----4-------4--|---0---------4----|-
A||---3-------5------|------------------|-3-------2s5------|-  
E||------------------|------------------|------------------|-
 
 (F#madd4)           (Em)               (F#madd4)          (Em)
e|-------------------|------------------|------------------|-0---------------|
B|-0-------0---------|-0-------0--------|-0-------0--------|-0---------------|
G|-2-------2---------|-0-------0--------|-2-------2--------|-0---------------|
D|-----4-------4-----|-----2-------2----|-----4-------4----|-2---------------|
A|-------------------|------------------|------------------|-2---------------|
E|-------------------|------------------|------------------|-0---------------|


  Em                              G
Remember when we used to look how sun set far away'  
    Am                           G D
And how you said: "this is never o-ver"
Em                             G
I believed your every word and I guess you did too
    Am                                        G D
But now you're saying: "hey, let's think this o-ver"

C           D                Em
You take My hand and pull me next to you, so close to you
C        D       Em
I have a feeling you don't have the words
C       D            G         D          Em       D     C
I found one for you, kiss your cheek, say bye, and walk away
                           G  D
Don't look back cause I am crying                             
                                                             
  (Csus2)    (Dsus2)  (G5/F#)           (Csus2)  (Dsus2)   (Esus2)      
e||------------------|------------------|------------------|----------------|-
B||------------------|-----3-----3------|------------------|-----0----------|-
G||-------0-------2--|---0-----0---0----|-----0-------2----|----------------|-
D||-----0-------2----|-4-----4-------4--|---0-------2------|-2s4------------|-
A||---3-------5------|------------------|-3-------5--------|----------------|-  
E||------------------|------------------|------------------|----------------|-

  (Csus2)    (Dsus2) (G5/F#)            (Csus2)  (Bm)      
e||------------------|------------------|------------------|-
B||------------------|-----3-----3------|------------------|-
G||-------0-------2--|---0-----0---0----|-----0------------|-
D||-----0-------2----|-4-----4-------4--|---0---------4----|-
A||---3-------5------|------------------|-3-------2s5------|-  
E||------------------|------------------|------------------|-
 
 (F#madd4)           (Em)               (F#madd4)          (Em)
e|-------------------|------------------|------------------|-0---------------|
B|-0-------0---------|-0-------0--------|-0-------0--------|-0---------------|
G|-2-------2---------|-0-------0--------|-2-------2--------|-0---------------|
D|-----4-------4-----|-----2-------2----|-----4-------4----|-2---------------|
A|-------------------|------------------|------------------|-2---------------|
E|-------------------|------------------|------------------|-0---------------|


Em                            G
I remember little things, you hardly ever do
Am                                 G D
Tell me why- I don't know why it's o-ver
Em                             G         
I remember shooting stars, the walk we took that night
  Am                       G       D
I hope your wish came true, mine betrayed me

C          D                Em
You let my hand go, and you fake a smile for me
C        D           Em
I have a feeling you don't know what to do
C           D             G   D      Em     D
I look deep in your eyes, hesitate a while...
C           G  D
Why are you crying?

G    D         Am  Em          G         D                  C   Dadd11  C   Dadd11
Tallulah, It's easier to live alone than fear the time it's over
G    D             Am        Em              G    D
Tallulah, find the words and talk to me, oh, Tallulah, this could be...               
 
 (Csus2) (Dsus2)    (Esus2)
e|------------------|----------------|
B|------------------|-----0----------|
G|-----0-------2----|----------------|
D|---0-------2------|-2s4------------|
A|-3-------5--------|----------------|
E|------------------|----------------|
                           ... heaven 

Am                        C                                    Em
I see you walking hand in hand with long-haired drummer of the band
                          G                                  Am
In love with her or so it seems, he's dancing with my beauty queen
                           C                            Em
Don't even dare to say you hi, still swallowing the goodbye
                        G          D C
But I know the feelings still alive- still alive

Em   G   Am   G D
Em   G   Am   G D

C         D                 Em
I lost my patience once, so do you punish me now
C           D            Em
I'll always love you, no matter what you do
C            D              G        D    Em     D
I'll win you back for me if you give me a chance
C                               G    D
But there is one thing you must understand

G    D         Am  Em          G         D                  C   Dadd11   C   Dadd11
Tallulah, It's easier to live alone than fear the time it's over
G    D             Am        Em              G    D                   C   Dadd11   C   Dadd11
Tallulah, find the words and talk to me, oh, Tallulah, this could be...
G    D         Am  Em          G         D                  C   Dadd11   C   Dadd11
Tallulah, It's easier to live alone than fear the time it's over
G    D             Am        Em              G    D                  
Tallulah, find the words and talk to me, oh, Tallulah, this could be...                   

 (Csus2) (Dsus2)    (Esus2)  
e|------------------|----------------|
B|------------------|-----0----------|
G|-----0-------2----|----------------|
D|---0-------2------|-2s4------------|
A|-3-------5--------|----------------|
E|------------------|----------------|
Добавлено: 09.05.2012
Другие материалы по этой песне:

Страница создана 01.03.2012
http://primanota.ru/sonata-arctica/tallulah-chords.htm
Привет, Гость.
Предлагаем пройти революционный курс по гитаре.
Подарок от PrimaNota.Ru, забирай!