PrimaNota.ru - самый крупный в мире бесплатный архив песенных текстов, аккордов, табулатур и нот


Sonata Arctica - Abandoned Pleased Brainwashed Exploited - текст песни, таба, видео

Регистрация Запомнить меня
Войти через:  Facebook Google Twitter Vk Yandex Mail.ru

Sonata Arctica - Abandoned Pleased Brainwashed Exploited - текст песни, таба, видео

Печатать
Просмотров: 150
itle: Abandoned, Pleased, Brainwashed, Exploited
Artist: Sonata Arctica
Album: Winterhearts Guild
Guitar

Legend
L - tied note
x - dead note
h - hammer on/pull off
b - bend
s - slide
~ - vibrato
g - ghost note
> - accentuated note
t - trill
M - palm mute
. - staccato
P - popping (bass)
S - slapping (bass)
+ - tapping
W - wide vibrato
< - fade in
w - whammy bar
= - tremolo picking
v - brush up
^ - brush down
V - pick stroke up
n - pick stroke down


D#|----------------||
A#|----------------||
F#|----------------||
C#|----------------||
G#|----------------||
D#|----------------||


--------------------------------------------------------------------------------
--------------------------------------------------------------------------------
o9-----------------9-----------------9-----------------9------------------------
o9-----------------9-----------------7-----------------7-----------------12-10-9
-7-----7--7--7--7--7-----7--7--7--7--7-----7--7--7--7--7-----7--7--7--7---------
--------------------------------------------------------------------------------


-------------------|
-------------------|
-------------------|
-------------------|
--12-10-9----------|
-----------12-10---|


--------------------------------------------------------------------------------
--------------------------------------------------------------------------------
--9-----------------9-----------------9-----------------9-----------------------
--9-----------------9-----------------7-----------------7-----------------12-10-
--7-----7--7--7--7--7-----7--7--7--7--7-----7--7--7--7--7-----7--7--7--7--------
--------------------------------------------------------------------------------


--------------------|
--------------------|
--------------------|
9-------------------|
---12-10-9----------|
------------12-10---|


--------------------------------------------------------------------------------
--------------------------------------------------------------------------------
--9-----------------9-----------------9-----------------9-----------------------
--9-----------------9-----------------7-----------------7-----------------12-10-
--7-----7--7--7--7--7-----7--7--7--7--7-----7--7--7--7--7-----7--7--7--7--------
--------------------------------------------------------------------------------


--------------------|
--------------------|
--------------------|
9-------------------|
---12-10-9----------|
------------12-10---|


--------------------------------------------------------------------------------
--------------------------------------------------------------------------------
--9-----------------9-----------------9-----------------9-----------------------
--9-----------------9-----------------7-----------------7-----------------12-10-
--7-----7--7--7--7--7-----7--7--7--7--7-----7--7--7--7--7-----7--7--7--7--------
--------------------------------------------------------------------------------


-------------------||
-------------------||
------------------o||
9-----------------o||
---12-10-9---------||
------------12-10--||


--------------------------------------------------------------------------------
--------------------------------------------------------------------------------
--9-----------------9-----------------9-----------------9-----------------------
--9-----------------9-----------------7-----------------7-----------------12-10-
--7-----7--7--7--7--7-----7--7--7--7--7-----7--7--7--7--7-----7--7--7--7--------
--------------------------------------------------------------------------------


--------------------||------|-------|
--------------------||------|-------|
--------------------||o-----|-------|
9-------------------||o2L---|--2----|
---12-10-9----------||-2L---|--2----|
------------12-10---||-0L---|--0----|


--------------------------------------------------------------------------------
--------------------------------------------------------------------------------
--------------------------------------------------7-----------------7-----------
--5-----------------5-----------------5-----------7-----------------7-----------
--5-----------------5-----------------5-----------5--------5--5--5--5--------5--
--3--------3--3--3--3--------3--3--3--3--------3--------------------------------


--------------------|
--------------------|
------7-------------|
------7-------------|
5--5--5--------5----|
--------------------|


--------------------------------------------------------------------------------
--------------------------------------------------------------------------------
--5-----------------5-----------------5-----------6-----------------6-----------
--5-----------------5-----------------5-----------7-----------------7-----------
--3--------3--3--3--3--------3--3--3--3--------3--5--------5--5--5--5--------5--
--------------------------------------------------------------------------------


-------------------||
-------------------||
------6-----------o||
------7-----------o||
5--5--5--------5---||
-------------------||


--------------------------------------------------------------------------------
--------------------------------------------------------------------------------
--9-----------------9-----------------9-----------------9-----------------------
--9-----------------9-----------------7-----------------7-----------------12-10-
--7-----7--7--7--7--7-----7--7--7--7--7-----7--7--7--7--7-----7--7--7--7--------
--------------------------------------------------------------------------------


--------------------|
--------------------|
--------------------|
9-------------------|
---12-10-9----------|
------------12-10---|


--------------------------------------------------------------------------------
--------------------------------------------------------------------------------
--7-----------------7-----------------5-----------------5-----------------------
--7-----------------7-----------------5-----------------5-----------------7--5--
--5-----5--5--5--5--5-----5--5--5--5--3-----3--3--3--3--3-----3--3--3--3--------
--------------------------------------------------------------------------------


--------------------||------|-------|
--------------------||------|-------|
--------------------||o-----|-------|
4-------------------||o2L---|--2----|
---7--5--4----------||-2L---|--2----|
------------7--5----||-0L---|--0----|


--------------------------------------------------------------------------------
--------------------------------------------------------------------------------
--------------------------------------------------7-----------------7-----------
--5-----------------5-----------------5-----------7-----------------7-----------
--5-----------------5-----------------5-----------5--------5--5--5--5--------5--
--3--------3--3--3--3--------3--3--3--3--------3--------------------------------


--------------------|
--------------------|
------7-------------|
------7-------------|
5--5--5--------5----|
--------------------|


--------------------------------------------------------------------------------
--------------------------------------------------------------------------------
--5-----------------5-----------------5-----------6-----------------6-----------
--5-----------------5-----------------5-----------7-----------------7-----------
--3--------3--3--3--3--------3--3--3--3--------3--5--------5--5--5--5--------5--
--------------------------------------------------------------------------------


-------------------||
-------------------||
------6-----------o||
------7-----------o||
5--5--5--------5---||
-------------------||


--------------------------------------------------------------------------------
--------------------------------------------------------------------------------
--------------------------------------------------7-----------------7-----------
--5-----------------5-----------------5-----------7-----------------7-----------
--5-----------------5-----------------5-----------5--------5--5--5--5--------5--
--3--------3--3--3--3--------3--3--3--3--------3--------------------------------


--------------------|
--------------------|
------7-------------|
------7-------------|
5--5--5--------5----|
--------------------|


--------------------------------------------------------------------------------
--------------------------------------------------------------------------------
--5-----------------5-----------------5-----------6-----------------6-----------
--5-----------------5-----------------5-----------7-----------------7-----------
--3--------3--3--3--3--------3--3--3--3--------3--5--------5--5--5--5--------5--
--------------------------------------------------------------------------------


--------------------|----------|-------|----------|----------|----------|
--------------------|----------|-------|----------|----------|----------|
------6-------------|--5--7----|-------|--5--7----|----------|--5--7----|
------7-------------|--5--7----|--7----|--5--7----|--5--7----|--5--7----|
5--5--5--------5----|--3--5----|--7----|--3--5----|--5--7----|--3--5----|
--------------------|----------|--5----|----------|--3--5----|----------|


-------|----------|----------|-------|-------|-------|----------------|-------|
-------|----------|----------|-------|-------|-------|----------------|-------|
-------|--5--7----|----------|--5----|-------|--7----|--9--------7----|--5----|
--7----|--5--7----|--5--7----|--5----|--5----|--7----|--9--------7----|--5----|
--7----|--3--5----|--5--7----|--3----|--5----|--5----|--7--------5----|--3----|
--5----|----------|--3--5----|-------|--3----|-------|----------------|-------|


-------|-------|-------|
-------|-------|-------|
-------|--7----|-------|
--5----|--7----|--9----|
--5----|--5----|--9----|
--3----|-------|--7----|


--------------------------------------------------------------------------------
--------------------------------------------------------------------------------
--9-----------------9-----------------9-----------------9-----------------------
--9-----------------9-----------------7-----------------7-----------------12-10-
--7-----7--7--7--7--7-----7--7--7--7--7-----7--7--7--7--7-----7--7--7--7--------
--------------------------------------------------------------------------------


--------------------|
--------------------|
--------------------|
9-------------------|
---12-10-9----------|
------------12-10---|


--------------------------------------------------------------------------------
--------------------------------------------------------------------------------
--7-----------------7-----------------5-----------------5-----------------------
--7-----------------7-----------------5-----------------5-----------------7--5--
--5-----5--5--5--5--5-----5--5--5--5--3-----3--3--3--3--3-----3--3--3--3--------
--------------------------------------------------------------------------------


--------------------|
--------------------|
--------------------|
4-------------------|
---7--5--4----------|
------------7--5----|


--------------------------------------------------------------------------------
--------------------------------------------------------------------------------
--9-----------------9-----------------9-----------------9-----------------------
--9-----------------9-----------------7-----------------7-----------------12-10-
--7-----7--7--7--7--7-----7--7--7--7--7-----7--7--7--7--7-----7--7--7--7--------
--------------------------------------------------------------------------------


--------------------|
--------------------|
--------------------|
9-------------------|
---12-10-9----------|
------------12-10---|


--------------------------------------------------------------------------------
--------------------------------------------------------------------------------
--7-----------------7-----------------5-----------------5-----------------------
--7-----------------7-----------------5-----------------5-----------------------
--5-----5--5--5--5--5-----5--5--5--5--3-----3--3--3--3--3-----3--3--3--3--------
--------------------------------------------------------------------------------


--------------------||------|-------|
--------------------||------|-------|
--------------------||o-----|-------|
--------------------||o2L---|--2----|
--------------------||-2L---|--2----|
--------------------||-0L---|--0----|


--------------------------------------------------------------------------------
--------------------------------------------------------------------------------
--------------------------------------------------7-----------------7-----------
--5-----------------5-----------------5-----------7-----------------7-----------
--5-----------------5-----------------5-----------5--------5--5--5--5--------5--
--3--------3--3--3--3--------3--3--3--3--------3--------------------------------


--------------------|
--------------------|
------7-------------|
------7-------------|
5--5--5--------5----|
--------------------|


--------------------------------------------------------------------------------
--------------------------------------------------------------------------------
--5-----------------5-----------------5-----------6-----------------6-----------
--5-----------------5-----------------5-----------7-----------------7-----------
--3--------3--3--3--3--------3--3--3--3--------3--5--------5--5--5--5--------5--
--------------------------------------------------------------------------------


-------------------||----------|-------|----------|----------|----------|
-------------------||----------|-------|----------|----------|----------|
------6-----------o||--5--7----|-------|--5--7----|----------|--5--7----|
------7-----------o||--5--7----|--7----|--5--7----|--5--7----|--5--7----|
5--5--5--------5---||--3--5----|--7----|--3--5----|--5--7----|--3--5----|
-------------------||----------|--5----|----------|--3--5----|----------|


-------|----------|----------|
-------|----------|----------|
-------|--5--7----|----------|
--7----|--5--7----|--5--7----|
--7----|--3--5----|--5--7----|
--5----|----------|--3--5----|


--------------------------------------------------------------------------------
--------------------------------------------------------------------------------
--------------------------------------------------------------------------------
--------------------------------------------------------------------------------
--------------------------------------------------------------------------------
--0--0--0--------------0-----0--------------------0-----0--0--0-----------------


--------------------|
--------------------|
--------------------|
--------------------|
--------------------|
--------------------|


--------------------------------------------------------------------------------
--------------------------------------------------------------------------------
--------------------------------------------------------------------------------
--------------------------------------------------------------------------------
--------------------------------------------------------------------------------
--0-----0--0--------------------------------------0--0--0-----0-----0-----0-----


--------------------|
--------------------|
--------------------|
--------------------|
--------------------|
0-----0--0--0-------|


--------------------------------------------------------------------------------
--------------------------------------------------------------------------------
--------------------------------------------------------------------------------
--------------------------------------------------------------------------------
--------------------------------------------------------------------------------
--0-----0--0--------------------------------------0--0--0--0-----0-----0--------


--------------------|
--------------------|
--------------------|
--------------------|
--------------------|
--------------------|


--------------------------------------------------------------------------------
--------------------------------------------------------------------------------
--------------------------------------------------------------------------------
--------------------------------------------------------------------------------
--------------------------------------------------------------------------------
--0-----0--0--0-----------------------------------0-----0--0--------------------


--------------------|
--------------------|
--------------------|
--------------------|
--------------------|
--------------------|


--------------------------------------------------------------------------------
--------------------------------------------------------------------------------
--------------------------------------------------------------------------------
--------------------------------------------------------------------------------
--------------------------------------------------------------------------------
--0--0--0--0--0-----0-----0-----0-----0--0--0-----0-----0--0--------------------


--------------------|
--------------------|
--------------------|
--------------------|
--------------------|
--------------------|


--------------------------------------------------------------------------------
--------------------------------------------------------------------------------
--------------------------------------------------------------------------------
--------------------------2-----------------------------------2-----------------
--------------------------2-----------------------------------2-----------------
--0-----0-----0-----0-----0-----------0-----0-----0-----0-----0-----------------


--------------------|
--------------------|
--------------------|
--------------------|
--------------------|
--------------------|


--------------------------------------------------------------------------------
--------------------------------------------------------------------------------
--------------------------------------------------------------------------------
--------------------------------------------------------------------------------
--------------------------------------------------------------------------------
--0-----0--0--0-----0-----0-----------------------0-----0--0--0-----------------


--------------------|
--------------------|
--------------------|
--------------------|
--------------------|
--------------------|


--------------------------------------------------------------------------------
--------------------------------------------------------------------------------
--------------------------------------------------------------------------------
--------------------------------------------------------------------------------
--------------------------------------------------------------------------------
--0-----0--0--------------------------------------0--0--0--0-----0-----0-----0--


--------------------|
--------------------|
--------------------|
--------------------|
--------------------|
---0--0--0----------|


--------------------------------------------------------------------------------
--------------------------------------------------------------------------------
--------------------------------------------------------------------------------
--------------------------------------------------------------------------------
--------------------------------------------------------------------------------
--0-----0--0--------------------------------------0--0--0--0-----0-----0--------


--------------------|
--------------------|
--------------------|
--------------------|
--------------------|
--------------------|


--------------------------------------------------------------------------------
--------------------------------------------------------------------------------
--------------------------------------------------------------------------------
--------------------------------------------------------------------------------
--------------------------------------------------------------------------------
--0-----0--0--0-----------------------------------0-----0--0--------------------


--------------------|
--------------------|
--------------------|
--------------------|
--------------------|
--------------------|


--------------------------------------------------------------------------------
--------------------------------------------------------------------------------
--------------------------------------------------------------------------------
--------------------------------------------------------------------------------
--------------------------------------------------------------------------------
--0--0--0--0--0-----0-----0-----0-----0--0--0-----0-----0--0--------------------


--------------------|
--------------------|
--------------------|
--------------------|
--------------------|
--------------------|


--------------------------------------------------------------------------------
--------------------------------------------------------------------------------
--------------------------------------------------------------------------------
--------------------------2-----------------------------------2-----------------
--------------------------2-----------------------------------2-----------------
--0-----0-----0-----0-----0-----------0-----0-----0-----0-----0-----------------


--------------------|----------------|----------------|----------------|
--------------------|----------------|----------------|----------------|
--------------------|----------------|----------------|----------------|
--------------------|----------------|----------------|----------------|
--------------------|----------------|----------------|----------------|
--------------------|----------------|----------------|----------------|


----------------|----------------|----------------------------|----------|
----------------|----------------|----------------------------|----------|
----------------|----------------|----------------------------|-----7----|
----------------|----------------|--------------------7--9----|--10-7----|
----------------|----------------|--------------------7--9----|--10-5----|
----------------|----------------|--------------------5--7----|--8-------|


-------|----------|-------|----------|----------|----------|-------|----------|
-------|----------|-------|----------|----------|----------|-------|----------|
--9----|--5--7----|-------|--5--7----|----------|--5--7----|-------|--5--7----|
--9----|--5--7----|--7----|--5--7----|--5--7----|--5--7----|--7----|--5--7----|
--7----|--3--5----|--7----|--3--5----|--5--7----|--3--5----|--7----|--3--5----|
-------|----------|--5----|----------|--3--5----|----------|--5----|----------|


----------||------|-------|-------|----------------|-------|-------|-------|
----------||------|-------|-------|----------------|-------|-------|-------|
----------||o5----|-------|--7----|--9--------7----|--5----|-------|--7----|
--5--7----||o5----|--5----|--7----|--9--------7----|--5----|--5----|--7----|
--5--7----||-3----|--5----|--5----|--7--------5----|--3----|--5----|--5----|
--3--5----||------|--3----|-------|----------------|-------|--3----|-------|


------||
------||
-----o||
--9--o||
--9---||
--7---||


--------------------------------------------------------------------------------
--------------------------------------------------------------------------------
--9-----------------9-----------------9-----------------9-----------------------
--9-----------------9-----------------7-----------------7-----------------12-10-
--7-----7--7--7--7--7-----7--7--7--7--7-----7--7--7--7--7-----7--7--7--7--------
--------------------------------------------------------------------------------


--------------------|
--------------------|
--------------------|
9-------------------|
---12-10-9----------|
------------12-10---|


--------------------------------------------------------------------------------
--------------------------------------------------------------------------------
--7-----------------7-----------------5-----------------5-----------------------
--7-----------------7-----------------5-----------------5-----------------7--5--
--5-----5--5--5--5--5-----5--5--5--5--3-----3--3--3--3--3-----3--3--3--3--------
--------------------------------------------------------------------------------


--------------------|
--------------------|
--------------------|
4-------------------|
---7--5--4----------|
------------7--5----|


--------------------------------------------------------------------------------
--------------------------------------------------------------------------------
--9-----------------9-----------------9-----------------9-----------------------
--9-----------------9-----------------7-----------------7-----------------12-10-
--7-----7--7--7--7--7-----7--7--7--7--7-----7--7--7--7--7-----7--7--7--7--------
--------------------------------------------------------------------------------


--------------------|
--------------------|
--------------------|
9-------------------|
---12-10-9----------|
------------12-10---|


--------------------------------------------------------------------------------
--------------------------------------------------------------------------------
--7-----------------7-----------------5-----------------5-----------------------
--7-----------------7-----------------5-----------------5-----------------7--5--
--5-----5--5--5--5--5-----5--5--5--5--3-----3--3--3--3--3-----3--3--3--3--------
--------------------------------------------------------------------------------


--------------------|----------------------------------------------------||
--------------------|----------------------------------------------------||
--------------------|--9-------------------------------------------------||
4-------------------|--9-------------------------------------------------||
---7--5--4----------|--7-------------------------------------------------||
------------7--5----|----------------------------------------------------||
Добавлено: 07.07.2015
Другие материалы по этой песне:

Страница создана 30.07.2012
http://primanota.ru/sonata-arctica/abandoned-pleased-brainwashed-exploited-chords.htm
Привет, Гость.
Предлагаем пройти революционный курс по гитаре.
Подарок от PrimaNota.Ru, забирай!