PrimaNota.ru - самый крупный в мире бесплатный архив песенных текстов, аккордов, табулатур и нот


Soil - Last Chance - текст песни, таба, видео

Регистрация Запомнить меня
Войти через:  Facebook Google Twitter Vk Yandex Mail.ru

Soil - Last Chance - текст песни, таба, видео

Печатать
Просмотров: 214
From the album True Self: track nº4.

v vibrato
. Palm mute
~ Hold note
/ String slide

Tuning: drop A# the 3 last strings but the other 3 in drop C.

Intro/Chorus:
D |-------------------------------------------------------------------|
A |-------------------------------------------------------------------|  
F |-------------------------------------------------------------------|  
A#|--4-4-6-6h77--4-4-6-6h77--0-0---------0-0--------------------------|x2
F |--4-4---------4-4---------0-0-5-5p4v--0-0-5-5p44-------------------|
A#|--4-4---------4-4---------0-0---------0-0--------------------------|

Verse:
D |--------------------------------3^---------------------------------|
A |-------------------------------0^----------------------------------|  
F |------------------------------0^-----------------------------------|  
A#|--4~---------0~----------4~-----------0~---------------------------|x1
F |--4~---------0~----------4~-----------0~---------------------------|
A#|--4~---------0~----------4~-----------0~---------------------------|

D |-------------------------------------------------------------------|
A |-----------10~8-7-8---------13~12-10-------------------------------|  
F |--9~11-12-9--------9~11-12-9---------12----------------------------| 
A#|-------------------------------------------------------------------|x2
F |-------------------------------------------------------------------|
A#|-------------------------------------------------------------------|

D |--xx-xxxxxxxxxxxx-xx-xxxxxxxxxxxx----------------------------------|
A |--13~131313131313-12~121212121212----------------------------------|  
F |-------------------------------------------------------------------|  
A#|-------------------------------------------------------------------|x4
F |-------------------------------------------------------------------|
A#|-------------------------------------------------------------------|

-Chorus
-Verse
-Chorus

Break:
D |-------------------------------------------------------------------|
A |-------------------------------------------------------------------|  
F |-------------------------------------------------------------------|  
A#|--4~4-0-4~4--0~0-0-0~0-000--4~4-0-4~4--0~0-0-0~0~------------------|x2
F |--4~4-0-4~4--0~0-0-0~0-000--4~4-0-4~4--0~0-0-0~0~------------------|
A#|--4~4-0-4~4--0~0-0-0~0-000--4~4-0-4~4--0~0-0-0~0~------------------|
         .          .     ...      .          .

Guitar1:
D |-------------------------------------------------------------------|
A |-------------------------------------------------------------------|  
F |-------------------------------------------------------------------|  
A#|--4-4-6-6h77--4-4-6-6h77--0-0---------0-0--------------------------|x2
F |--4-4---------4-4---------0-0-5-5p4v--0-0-5-5p44-------------------|
A#|--4-4---------4-4---------0-0---------0-0--------------------------|

Guitar2:(not sure of this)
D |--141515141515141515141515-----------------------------------------|
A |---------------------------121313121313121313121313----------------|  
F |-------------------------------------------------------------------|  
A#|-------------------------------------------------------------------|x2
F |-------------------------------------------------------------------|
A#|-------------------------------------------------------------------|

D |-------------------------------------------------------------------|
A |-------------------------------------------------------------------|  
F |-------------------------------------------------------------------|  
A#|--4~---444---0~----4~---444---0~-----------------------------------|x1
F |--4~---444---0~----4~---444---0~-----------------------------------|
A#|--4~---444---0~----4~---444---0~-----------------------------------|
          ...              ...

D |-------------------------------------------------------------------|
A |-----------10~8-7-8---------13~12-10-------------------------------|  
F |--9~11-12-9--------9~11-12-9---------12----------------------------| 
A#|-------------------------------------------------------------------|x2
F |-------------------------------------------------------------------|
A#|-------------------------------------------------------------------|

D |--xx-xxxx-xxxx-xxxx-xxxx-xxxx-xxxx-xxxx----------------------------|
A |--13~1313-1312~1212-1213~1313-1312~1212----------------------------|  
F |-------------------------------------------------------------------|  
A#|-------------------------------------------------------------------|x2
F |-------------------------------------------------------------------|
A#|-------------------------------------------------------------------|

Guitar1:
D |-------------------------------------------------------------------|
A |-------------------------------------------------------------------|  
F |-------------------------------------------------------------------|  
A#|--4~44444444444444--0~00000000000000-------------------------------|x2
F |--4~44444444444444--0~00000000000000-------------------------------|
A#|--4~44444444444444--0~00000000000000-------------------------------|
     . ..............  . ..............

Guitar2:
D |-------------------------------------------------------------------|
A |--13~v---12~v---13~v---12~v---13~v---12~v--------------------------|  
F |--------------------------------------------12~v-------------------|  
A#|-------------------------------------------------------------------|x2
F |-------------------------------------------------------------------|
A#|-------------------------------------------------------------------|

Last Chorus(x3)(x2)(the riff 6times)
Sorry don't have the last background solo.

Outro:                                           End:
D |---------------------------------------------|---------------------|
A |---------------------------------------------|---------------------|  
F |---------------------------------------------|---------------------|  
A#|--4~44444444444444--0~00000000000000---------|--4------------------|
F |--4~44444444444444--0~00000000000000---x2----|--4------------------|
A#|--4~44444444444444--0~00000000000000---------|--4------------------|
     . ..............  . ..............
Добавлено: 18.03.2012
Другие материалы по этой песне:

Страница создана 06.03.2012
http://primanota.ru/soil/last-chance-chords.htm
Привет, Гость.
Предлагаем пройти революционный курс по гитаре.
Подарок от PrimaNota.Ru, забирай!