PrimaNota.ru - самый крупный в мире бесплатный архив песенных текстов, аккордов, табулатур и нот


Soil - The One - текст песни, таба, драм-таба, видео

Регистрация Запомнить меня
Войти через:  Facebook Google Twitter Vk Yandex Mail.ru

Soil - The One - текст песни, таба, драм-таба, видео

Печатать
Просмотров: 192
Hi guys, this is my first tab, but I think this is 100%

Any comments email me on

lilpig@hotmail.co.uk

Intro

E-----------------------------|
B-----------------------------|
G---7-7771010-10101010101010--| x1
D---7-7771010-8 8 8 8 8 8 8---|
A---5-5558 8 -8 8 8 8 8 8 8---|
D-----------------------------|

E-----------------------------|
B-----------------------------|
G---777771010-10101010101010--| x3
D---777771010-8 8 8 8 8 8 8---|
A---555558 8 -8 8 8 8 8 8 8---|
D-----------------------------|

Verse

E---------------------|
B---------------------|
G---------------------|
D---00003333-333-3333-| x4
A---00003333-333-3333-|
D---00003333-333-3333-|

E--------------------|
B--------------------|
G--------------------|
D---0000333333333333-| x2
A---0000333333333333-|
D---0000333333333333-|
    ****************

E---------------------|
B---------------------|
G---------------------|
D---00003333333333333-| x1
A---00003333333333333-|
D---00003333333333333-|
             ***
Chorus

E--------------------|
B--------------------|
G--------------------|
D---00-333333333333--| x4
A---00-333333333333--|
D---00-333333333333--|

Verse

E---------------------|
B---------------------|
G---------------------|
D---00003333-333-3333-| x4
A---00003333-333-3333-|
D---00003333-333-3333-|

E--------------------|
B--------------------|
G--------------------|
D---0000333333333333-| x2
A---0000333333333333-|
D---0000333333333333-|
    ****************

E--------------------|
B--------------------|
G--------------------|
D---0000333333333333-| x1
A---0000333333333333-|
D---0000333333333333-|
             ***
Chorus

E-------------------|
B-------------------|
G-------------------|
D---00-33333333333--| x4
A---00-33333333333--|
D---00-33333333333--|

Break Down (Oh Yeah)

E------------------------|
B------------------------|
G---887787---887781087---| x4
D---------8-----------8--|
A------------------------|
D------------------------|

Coda

E-------------------|
B-------------------|
G-------------------|
D---0-0-0-0-3-3-3-3-|
A---0-0-0-0-3-3-3-3-|
D---0-0-0-0-3-3-3-3-|
                  *
E-----------------------------|
B-----------------------------|
G-----------------------------|
D---3---3---3-----------------|
A---3---3---30000000000000000-|
D---3---3---30000000000000000-|
             ****************
Chorus

E-------------------|
B-------------------|
G-------------------|
D---00-33333333333--| x8
A---00-33333333333--|
D---00-33333333333--|

Final Break Down

E----------------------------------------------|
B----------------------------------------------|
G---887787----887781087----887787----88778-----|
D---------8------------8---------8--------8----|
A----------------------------------------------|
D----------------------------------------------|

I think thats all of it, Happy New Year
Добавлено: 24.05.2012
Другие материалы по этой песне:

Страница создана 17.04.2012
http://primanota.ru/soil/the-one-chords.htm
Привет, Гость.
Предлагаем пройти революционный курс по гитаре.
Подарок от PrimaNota.Ru, забирай!