PrimaNota.ru - самый крупный в мире бесплатный архив песенных текстов, аккордов, табулатур и нот


Smile Empty Soul - Stay Alive - таба, видео

Регистрация Запомнить меня
Войти через:  Facebook Google Twitter Vk Yandex Mail.ru

Smile Empty Soul - Stay Alive - таба, видео

Печатать
Просмотров: 317
Уроки эстрадного вокала в Санкт-Петербурге
First time I've tabbed before but I find this pretty spot on. This is how I believe the 
song would be played if it were solely on acoustic guitar.
You can figure out the strumming as it isn't that hard.


   Verse 1
e|------0---------------0---------------0------------------------|
B|------3-------0-------3-------0-------3-------0----------------|
G|------2-------2-------2-------2-------2-------2-------2-------1|
D|------0-------2-------0-------2-------0-------2-------4-------2|
A|------0-------0-------0-------0-------0-------0-------4-------2|
D|---------------------------------------------------------------|

   Pre-Chorus
e|------0---------------0---------------0------------------------|
B|------3-------0-------3-------0-------3-------0----------------|
G|------2-------2-------2-------2-------2-------2-------2-------1|
D|------0-------2-------0-------2-------0-------2-------4-------2|
A|------0-------0-------0-------0-------0-------0-------4-------2|
D|---------------------------------------------------------------|

Chorus
e|---------------------|        |----------------------|
B|---------------------|        |----------------------|
G|---------------------|        |----------------------|
D|------0------2------4|        |0------7------4------2|
A|------0------2------4|        |0------7------4------2|
D|------0------2------4|x4      |0------7------4------2|x2

Piano Interlude
e|-----------0------0----------0-----0----------0-----0-----2-0-------0---|
B|-------------2------2----------2-----2----------2-----2-------2-0-----2-|
G|---------2------2----------2-----2----------2-----2---------------2-----|
D|------------------------------------------------------------------------|
A|-------0--------0-------0--------0--------0-------0-------0-------0-----|
D|------------------------------------------------------------------------|
  Pre-Chorus
e|------0---------------0---------------0------------------------|
B|------3-------0-------3-------0-------3-------0----------------|
G|------2-------2-------2-------2-------2-------2-------2-------1|
D|------0-------2-------0-------2-------0-------2-------4-------2|
A|------0-------0-------0-------0-------0-------0-------4-------2|
D|---------------------------------------------------------------|

Chorus
e|---------------------|        |----------------------|
B|---------------------|        |----------------------|
G|---------------------|        |----------------------|
D|------0------2------4|        |0------7------4------2|
A|------0------2------4|        |0------7------4------2|
D|------0------2------4|x4      |0------7------4------2|x2

Interlude 2
e|--------------------------------------|
B|--------------------------------------|
G|--------------------------------------|
D|-------0-0-7-4--4/9-7--7 /1212/7-7-9-4|
A|-------0-0-0-0--0-0-0--0--0--0-0-0-0-0|
D|-------0-0-0-0--0-0-0--0--0--0-0-0-0-0|X3

End Chorus
e|---------------------------------|
B|------3--------0--------3-------0|
G|------2--------2--------2-------2|
D|------0--------2--------0-------2|
A|------0--------0--------0-------0|
D|---------------------------------|

e|--------------------------|   e|-----------------|
B|--------------------------|   B|-----------------|
G|--------------------------|   G|-----------------|
D|0-------7-------4--------2|   D|0-------2-------4|
A|0-------7-------4--------2|   A|0-------2-------4|
D|0-------7-------4--------2|x3 D|0-------2-------4|
Добавлено: 07.10.2013
Другие материалы по этой песне:
  • Аккорды и текст

Страница создана 07.10.2013
http://primanota.ru/smile-empty-soul/stay-alive-chords.htm
Привет, Гость.
Предлагаем пройти революционный курс по гитаре.
Подарок от PrimaNota.Ru, забирай!