PrimaNota.ru - самый крупный в мире бесплатный архив песенных текстов, аккордов, табулатур и нот


Smile Empty Soul - Refill Me - текст песни, таба, видео

Регистрация Запомнить меня
Войти через:  Facebook Google Twitter Vk Yandex Mail.ru

Smile Empty Soul - Refill Me - текст песни, таба, видео

Печатать
Просмотров: 146
this is one of my first ones so be nice plus this song is a pain to try to get

tuning: drop d down a half step

intro
Eb|-----------------------------------------------------|
Bb|-----------------------------------------------------|
F#|----------7-77---------7-77---------7-77-------------|
C#|---0-0--0-7-77--0-0--0-7-77--0-0--0-7-77--7/8888\555-|
G#|---0-0--0-5-55--0-0--0-5-55--0-0--0-5-55--7/8888\555-|
C#|---0-0--0-------0-0--0-------0-0--0-------7/8888\555-|

(little bend part in the intro)

Eb|-------------|
Bb|-------------|
F#|-------------|
C#|-------------|
G#|---7b8r7-5---|   <(late bend)
C#|-------------|
Добавлено: 18.03.2012
Другие материалы по этой песне:
  • Аккорды и текст

Страница создана 07.03.2012
http://primanota.ru/smile-empty-soul/refill-me-chords.htm
Привет, Гость.
Предлагаем пройти революционный курс по гитаре.
Подарок от PrimaNota.Ru, забирай!