PrimaNota.ru - самый крупный в мире бесплатный архив песенных текстов, аккордов, табулатур и нот


Smile Empty Soul - Anywhere But Down - таба, видео

Регистрация Запомнить меня
Войти через:  Facebook Google Twitter Vk Yandex Mail.ru

Smile Empty Soul - Anywhere But Down - таба, видео

Печатать
Просмотров: 173
Уроки эстрадного вокала в Санкт-Петербурге
this is what i came up with for anywhere but down any corrections and constructive 
remarks are welcome, also keep in mind i did not tab the timing thats for you to work out
tuning is c sharp

intro/verse
d#--------------||
a#--------------||
f#-----5--------||
c#--1--5--5--3--||
g#--1--3--5--3--||
c#--1-----5--3--||

chorus
d#-----------|-----------||
a#-----------|-----------||
f#-----3-----|-----------||
c#--1--3--5--|--3--0--1--||
g#--1--1--5--|--3--0--1--||
c#--1-----5--|--3--0--1--||

Before 2nd Verse Play This
d#-----------------------||
a#-----------------------||
f#--3-5-4-5-3--5--7--10--||
c#--x-x-x-x-x--x--x--x---||
g#--1-3-2-3-1--3--5--8---||
c#-----------------------||

bridge
d#------------||
a#------------||
f#--3---------||
c#--3--3--1---||
g#--1--3--1---||
c#-----3--1---||

there that was my best shot at the song i think the second part of the chorus is wrong 
i might be right so who knows just let me know what you think.............
Добавлено: 10.08.2013
Другие материалы по этой песне:
  • Аккорды и текст

Страница создана 10.08.2013
http://primanota.ru/smile-empty-soul/anywhere-but-down-chords.htm
Привет, Гость.
Предлагаем пройти революционный курс по гитаре.
Подарок от PrimaNota.Ru, забирай!