PrimaNota.ru - самый крупный в мире бесплатный архив песенных текстов, аккордов, табулатур и нот


Slayer - Simple Aggresion - таба, видео

Регистрация Запомнить меня
Войти через:  Facebook Google Twitter Vk Yandex Mail.ru

Slayer - Simple Aggresion - таба, видео

Печатать
Просмотров: 100
-------------------------------------------------------------------------------
                               simple aggression
-------------------------------------------------------------------------------
Tabbed by:
E-mail:

Tuning:standard

e|---------------------------------------------------------------------------|
B|---------------------------------------------------------------------------|
G|----------------------------------0-00-0-00-0-00-0-00-5p4p05p4p000---------|
D|-0-00-0-00-0-00-0-00-7p6p07p6p000------------------------------------------|
A|---------------------------------------------------------------------------|
E|---------------------------------------------------------------------------|

e|------------------------------------------|
B|------------------------------------------|
G|-----------------0-00-0-00-5p4p00---------|
D|-0-00-0-00-7p6p00-------------------------|
A|------------------------------------------|
E|------------------------------------------|



e|------------------------------------|
B|------------------------------------|
G|------------------------------------|
D|---7-----10-------4-5-7-5-----------|
A|---5-----8--------2-3-5-3-----------|
E|------------------------------------|

e|----------------|
B|----------------|
G|----------------|
D|-7-5-4-5--------|
A|-5-3-2-3--------|
E|----------------|



e|------|
B|-3p2p0|
G|------| x16
D|------|
A|------|
E|------|

e|------|
B|-5p3p0|
G|------| x16
D|------|
A|------|
E|------|

e|------|
B|-8p6p0|
G|------|
D|------|x4
A|------|
E|------|


e|------|
B|-7p5p0|
G|------|x4
D|------|
A|------|
E|------|

e|------|
B|8p6p0-|
G|------| x4
D|------|
A|------|
E|------|

e|------|
B|10p8p0|
G|------| x4
D|------|
A|------|
E|------|


--------------
--------------------
--------------------
----------------0h2p0h2p0h2p0h2-----
-0h2p0h2p0h2p0h2------
--------------------





************************************

| /   slide up
| \   slide down
| h   hammer-on
| p   pull-off
| ~   vibrato
| +   harmonic
| x   Mute note
| b   Bend
| pb  Pre-bend
| br  Bend release
| pbr Pre-bend release
| brb Bend release bend

************************************
Добавлено: 04.08.2015
Другие материалы по этой песне:
  • Аккорды и текст

Страница создана 04.08.2015
http://primanota.ru/slayer/simple-aggresion-chords.htm
Привет, Гость.
Предлагаем пройти революционный курс по гитаре.
Подарок от PrimaNota.Ru, забирай!