PrimaNota.ru - самый крупный в мире бесплатный архив песенных текстов, аккордов, табулатур и нот


Slayer - High Preistess - таба, видео

Регистрация Запомнить меня
Войти через:  Facebook Google Twitter Vk Yandex Mail.ru

Slayer - High Preistess - таба, видео

Печатать
Просмотров: 99
Уроки эстрадного вокала в Санкт-Петербурге
-------------------------------------------------------------------------------
                          HIGH PREISTESS-SLAYER
-------------------------------------------------------------------------------
Tabbed by:bsprung
E-mail

Tuning:standard
intro
e|---------------------------------------------------------------------------|
B|---------------------------------------------------------------------------|
G|---9---------12------------------------------------------------------------|
D|---7---------10------------------------------------------------------------|
A|---0---------0-------------------------------------------------------------|
E|---------------------------------------------------------------------------|

e|-----------------------------|
B|-----------------------------|
G|-9/10---------11/12---9/10---|
D|-9/10--9/10---11/12---9/10---|  x3
A|-7/8---9/10---9-/10---7/8----|
E|-------7/8-------------------|

e|--------------------------------|
B|--------------------------------|
G|-9/10------------7--------------|
D|-9/10---9/10-----7--------------|
A|-7/8----9/10-----5--------------|
E|--------7/8---------------------|

e|---------------------------------|
B|---------------------------------|
G|-------------------3---3-3-------|
D|-------------------3---3-3-------|x2
A|---7---5---1---8---1---1-1-------|
E|-0---0---0---0-------------------|

e|---------------------------------|
B|---------------------------------|
G|-------------------3---3-3-------|
D|-------------------3---3-3-------|x1
A|---7---5---4---8---1---1-1-------|
E|-0---0---0---0-------------------|


e|---------------------------------|
B|---------------------------------|
G|-------------------3---3-3-------|
D|-------------------3---3-3-------|x1
A|---7---5---1---8---1---1-1-------|
E|-0---0---0---0-------------------|

e|---------------------------------|
B|---------------------------------|
G|-------------------3---3-3-------|
D|-------------------3---3-3-------|x4
A|---7---5---4---8---1---1-1-------|
E|-0---0---0---0-------------------|

interlude
----------------------------------------\
---------------------------------------  \
---------------------------------------   \
---------------------------------------    \
--------------------4p3p04p3p0---------     \
-2-22-2-22-2-22-2-22----------22-------      \
                                              \
                                               \
----------------------------------------        \
----------------------------------------         \
----------------------------------------          \
----------------------------------------           \
--------------------5p4p05p4p0----------            \
-2-22-2-22-2-22-2-22----------22--------             \
                                                      \
                                                       \
----------------------------------------                \
----------------------------------------                 \
----------------------------------------
----------------------------------------                        x4
--------------------3p2p03p2p0----------
-2-22-2-22-2-22-2-22----------22-------- 
                                                           |
                                                           |
-------------------------------------------------------    |
-------------------------------------------------------    |
-------------------------------------------------------    /
-------------------------------------------------------   /
-----------4p3p0------------5p4p0------------3p20------ 
-2-22-2-22------2-2-22-2-22------2-2-22-2-22-----2-----

e|---------------------|
B|---------------------|
G|---------------------|
D|-5---5-5-------------| x4
A|-5---5-5-------------|
E|-3---3-3-------------|

e|--------------------------|
B|--------------------------|
G|--------------------------|
D|--------------------------|
A|---7---8---10---8---------|
E|-0---0---0----0-----------|

play interlude x8


solo

----0-16-0-15-0-14-0----0-15-0-16-0-17-0--|
-17------------------17-------------------|
------------------------------------------|
------------------------------------------|  x4
------------------------------------------|
------------------------------------------|

------------------------------------------|
----0-16-0-15-0-14-0----0-15-0-16-0-17-0--|
-17------------------17-------------------|
------------------------------------------|
------------------------------------------|  x4
------------------------------------------|

------------------------------------------|
------------------------------------------|
----0-16-0-15-0-14-0----0-15-0-16-0-17-0--|
-17------------------17-------------------|
------------------------------------------|
------------------------------------------|  x4

e|--------------------------|
B|--------------------------|
G|--------------------------|
D|-5---5-5------------------|x4
A|-5---5-5------------------|
E|-3---3-3------------------|

e|-----------------------------|
B|-----------------------------|
G|-9/10---------11/12---9/10---|
D|-9/10--9/10---11/12---9/10---|  x3
A|-7/8---9/10---9-/10---7/8----|
E|-------7/8-------------------|

e|-----------------------------------|
B|-----------------------------------|
G|-9/10------------9/10--------------|
D|-9/10---9/10-----9/10--------------|
A|-7/8----9/10-----7/8---------------|
E|--------7/8------------------------|
play interlude x1

************************************

| /   slide up
| \   slide down
| h   hammer-on
| p   pull-off
| ~   vibrato
| +   harmonic
| x   Mute note
| b   Bend
| pb  Pre-bend
| br  Bend release
| pbr Pre-bend release
| brb Bend release bend

************************************
Добавлено: 04.08.2015
Другие материалы по этой песне:
  • Аккорды и текст

Страница создана 04.08.2015
http://primanota.ru/slayer/high-preistess-chords.htm
Привет, Гость.
Предлагаем пройти революционный курс по гитаре.
Подарок от PrimaNota.Ru, забирай!