PrimaNota.ru - самый крупный в мире бесплатный архив песенных текстов, аккордов, табулатур и нот


Skrewdriver - National Socialist - текст песни, таба, видео

Регистрация Запомнить меня
Войти через:  Facebook Google Twitter Vk Yandex Mail.ru

Skrewdriver - National Socialist - текст песни, таба, видео

Печатать
Просмотров: 385
_______________________________________________________________________________
                     TOTENKOPF – National Socialist
      Great song, anyone can play it, really easy. I hope its correct
                    tabed by rok
               Complain at:  rokec88@gmail.com or msn rok_l@hotmail.com
_______________________________________________________________________________

Tuning:
Standard Tuning
EADGBe


Intro:			PM
		    |----------|
e|----------------------------------------------------------|
B|----------------------------------------------------------|
G|---5-5---3-3-5/-3----------------3-3-1---3--3-3-1--3------|  6x
D|---5-5---3-3-5/-3-3-3-3-3-3-3----3-3-1---3--3-3-1--3------|
A|---3-3---3-3-3/-1-1-1-1-1-1-1----1-1-1---1--1-1-1--1------|
E|----------------------------------------------------------|



Verse:	       		
         PM		PM           PM		    pm
     |-------|     |-------|	   |------|     |------|
|-----------------------------------------------------------------|
|-----------------------------------------------------------------|
|---5---------5---3---------3---1---------1-----------------------|
|---5-5-5-5-5-5---3-3-3-3-3-3---1-1-1-1-1-1---3---------3---------|
|---3-3-3-3-3-3---1-1-1-1-1-1---1-1-1-1-1-1---3-3-3-3-3-3---------|
|---------------------------------------------1-1-1-1-1-1---------|
      When   I   see   the    national   flag   in   the   wind…



         PM		PM           PM		    pm
     |-------|     |-------|	   |------|     |------|
|-----------------------------------------------------------------|
|-----------------------------------------------------------------|
|---5---------5---3---------3---1---------1-----------------------|
|---5-5-5-5-5-5---3-3-3-3-3-3---1-1-1-1-1-1---3---------3---------|
|---3-3-3-3-3-3---1-1-1-1-1-1---1-1-1-1-1-1---3-3-3-3-3-3---------|
|---------------------------------------------1-1-1-1-1-1---------|
       I    get     so     proud    what    I    believe      in



         PM		PM           PM		    pm
     |-------|     |-------|	   |------|     |------|
|-----------------------------------------------------------------|
|-----------------------------------------------------------------|
|---5---------5---3---------3---1---------1-----------------------|
|---5-5-5-5-5-5---3-3-3-3-3-3---1-1-1-1-1-1---3---------3---------|
|---3-3-3-3-3-3---1-1-1-1-1-1---1-1-1-1-1-1---3-3-3-3-3-3---------|
|---------------------------------------------1-1-1-1-1-1---------|
      I    feel    so    strong    I    can   do    whatever   I  like
 








         PM		PM           PM		    pm
     |-------|     |-------|	   |------|     |------|
|-----------------------------------------------------------------|
|-----------------------------------------------------------------|
|---5---------5---3---------3---1---------1-----------------------|
|---5-5-5-5-5-5---3-3-3-3-3-3---1-1-1-1-1-1---3---------3---------|
|---3-3-3-3-3-3---1-1-1-1-1-1---1-1-1-1-1-1---3-3-3-3-3-3---------|
|---------------------------------------------1-1-1-1-1-1---------|
      To   do   whatever   I   want   and   I   know   it's    right




Chorus:

        C5              A#5                A#/D#            F5
|-----------------------------------------------|
|-----------------------------------------------|
|---5---------3---------------------------------|
|---5---------3------------1--------3-----------|
|---3---------1------------1--------3-----------|
|-----------------------------------1-----------|
   There is nothing like it to see the flag in the wind 

        C5              A#5           A#/D#            F5
|-----------------------------------------------|
|-----------------------------------------------|
|---5---------3---------------------------------|
|---5---------3-------------------3-------------|
|---3---------1---------1---------3-------------|
|-----------------------1---------1-------------|
    There is nothing like it so go out there and win



         PM		PM           PM		    pm
     |-------|     |-------|	   |------|     |------|
|-----------------------------------------------------------------|
|-----------------------------------------------------------------|
|---5---------5---3---------3---1---------1-----------------------|
|---5-5-5-5-5-5---3-3-3-3-3-3---1-1-1-1-1-1---3---------3---------|
|---3-3-3-3-3-3---1-1-1-1-1-1---1-1-1-1-1-1---3-3-3-3-3-3---------|
|---------------------------------------------1-1-1-1-1-1---------|
    yeah  you  are  a  skinhead  and  you  should  be  proud in  what  you  are


         PM		PM           PM		    pm
     |-------|     |-------|	   |------|     |------|
|-----------------------------------------------------------------|
|-----------------------------------------------------------------|
|---5---------5---3---------3---1---------1-----------------------|
|---5-5-5-5-5-5---3-3-3-3-3-3---1-1-1-1-1-1---3---------3---------|
|---3-3-3-3-3-3---1-1-1-1-1-1---1-1-1-1-1-1---3-3-3-3-3-3---------|
|---------------------------------------------1-1-1-1-1-1---------|
       yes  you are a skinhead and the victory ain't that far, it ain't that far

Verse:
         PM		PM           PM		    pm
     |-------|     |-------|	   |------|     |------|
|-----------------------------------------------------------------|
|-----------------------------------------------------------------|
|---5---------5---3---------3---1---------1-----------------------|
|---5-5-5-5-5-5---3-3-3-3-3-3---1-1-1-1-1-1---3---------3---------|
|---3-3-3-3-3-3---1-1-1-1-1-1---1-1-1-1-1-1---3-3-3-3-3-3---------|
|---------------------------------------------1-1-1-1-1-1---------|
      When   I    see    the     multi-racial         society…



         PM		PM           PM		    pm
     |-------|     |-------|	   |------|     |------|
|-----------------------------------------------------------------|
|-----------------------------------------------------------------|
|---5---------5---3---------3---1---------1-----------------------|
|---5-5-5-5-5-5---3-3-3-3-3-3---1-1-1-1-1-1---3---------3---------|
|---3-3-3-3-3-3---1-1-1-1-1-1---1-1-1-1-1-1---3-3-3-3-3-3---------|
|---------------------------------------------1-1-1-1-1-1---------|
      Then    I    know   that    it's    right    to   fight   to   be   free…


         PM		PM           PM		    pm
     |-------|     |-------|	   |------|     |------|
|-----------------------------------------------------------------|
|-----------------------------------------------------------------|
|---5---------5---3---------3---1---------1-----------------------|
|---5-5-5-5-5-5---3-3-3-3-3-3---1-1-1-1-1-1---3---------3---------|
|---3-3-3-3-3-3---1-1-1-1-1-1---1-1-1-1-1-1---3-3-3-3-3-3---------|
|---------------------------------------------1-1-1-1-1-1---------|
       When    I    feel   how    they    brainwash    our    minds … 


         PM		PM           PM		    pm
     |-------|     |-------|	   |------|     |------|
|-----------------------------------------------------------------|
|-----------------------------------------------------------------|
|---5---------5---3---------3---1---------1-----------------------|
|---5-5-5-5-5-5---3-3-3-3-3-3---1-1-1-1-1-1---3---------3---------|
|---3-3-3-3-3-3---1-1-1-1-1-1---1-1-1-1-1-1---3-3-3-3-3-3---------|
|---------------------------------------------1-1-1-1-1-1---------|
      Then     I     know     I    can    fight     without      any     shame…




Chorus:

        C5              A#5                A#/D#            F5
|-----------------------------------------------|
|-----------------------------------------------|
|---5---------3---------------------------------|
|---5---------3------------1--------3-----------|
|---3---------1------------1--------3-----------|
|-----------------------------------1-----------|
   There is nothing like it to see the flag in the wind 

        C5              A#5           A#/D#            F5
|-----------------------------------------------|
|-----------------------------------------------|
|---5---------3---------------------------------|
|---5---------3-------------------3-------------|
|---3---------1---------1---------3-------------|
|-----------------------1---------1-------------|
    There is nothing like it so go out there and win



         PM		PM           PM		    pm
     |-------|     |-------|	   |------|     |------|
|-----------------------------------------------------------------|
|-----------------------------------------------------------------|
|---5---------5---3---------3---1---------1-----------------------|
|---5-5-5-5-5-5---3-3-3-3-3-3---1-1-1-1-1-1---3---------3---------|
|---3-3-3-3-3-3---1-1-1-1-1-1---1-1-1-1-1-1---3-3-3-3-3-3---------|
|---------------------------------------------1-1-1-1-1-1---------|
    yeah  you  are  a  skinhead  and  you  should  be  proud in  what  you  are


         PM		PM           PM		    pm
     |-------|     |-------|	   |------|     |------|
|-----------------------------------------------------------------|
|-----------------------------------------------------------------|
|---5---------5---3---------3---1---------1-----------------------|
|---5-5-5-5-5-5---3-3-3-3-3-3---1-1-1-1-1-1---3---------3---------|
|---3-3-3-3-3-3---1-1-1-1-1-1---1-1-1-1-1-1---3-3-3-3-3-3---------|
|---------------------------------------------1-1-1-1-1-1---------|
       yes  you are a skinhead and the victory ain't that far, it ain't that far




Verse:
         PM		PM           PM		    pm
     |-------|     |-------|	   |------|     |------|
|-----------------------------------------------------------------|
|-----------------------------------------------------------------|
|---5---------5---3---------3---1---------1-----------------------|
|---5-5-5-5-5-5---3-3-3-3-3-3---1-1-1-1-1-1---3---------3---------|
|---3-3-3-3-3-3---1-1-1-1-1-1---1-1-1-1-1-1---3-3-3-3-3-3---------|
|---------------------------------------------1-1-1-1-1-1---------|
        We    go    out    there    to    meat    the    white     revolution…


         PM		PM           PM		    pm
     |-------|     |-------|	   |------|     |------|
|-----------------------------------------------------------------|
|-----------------------------------------------------------------|
|---5---------5---3---------3---1---------1-----------------------|
|---5-5-5-5-5-5---3-3-3-3-3-3---1-1-1-1-1-1---3---------3---------|
|---3-3-3-3-3-3---1-1-1-1-1-1---1-1-1-1-1-1---3-3-3-3-3-3---------|
|---------------------------------------------1-1-1-1-1-1---------|
      Both    you    and   I    know    that    it's    the    final    solution…

   

      PM		PM           PM		    pm
     |-------|     |-------|	   |------|     |------|
|-----------------------------------------------------------------|
|-----------------------------------------------------------------|
|---5---------5---3---------3---1---------1-----------------------|
|---5-5-5-5-5-5---3-3-3-3-3-3---1-1-1-1-1-1---3---------3---------|
|---3-3-3-3-3-3---1-1-1-1-1-1---1-1-1-1-1-1---3-3-3-3-3-3---------|
|---------------------------------------------1-1-1-1-1-1---------|
       I'm    not    afraid    to   get   a   bullet    in    my    head…


         PM		PM           PM		    pm
     |-------|     |-------|	   |------|     |------|
|-----------------------------------------------------------------|
|-----------------------------------------------------------------|
|---5---------5---3---------3---1---------1-----------------------|
|---5-5-5-5-5-5---3-3-3-3-3-3---1-1-1-1-1-1---3---------3---------|
|---3-3-3-3-3-3---1-1-1-1-1-1---1-1-1-1-1-1---3-3-3-3-3-3---------|
|---------------------------------------------1-1-1-1-1-1---------|
       Cause    I    rather    be   dead   than    communist    red…




Chorus: 2x

        C5              A#5                A#/D#            F5
|-----------------------------------------------|
|-----------------------------------------------|
|---5---------3---------------------------------|
|---5---------3------------1--------3-----------|
|---3---------1------------1--------3-----------|
|-----------------------------------1-----------|
   There is nothing like it to see the flag in the wind 

        C5              A#5           A#/D#            F5
|-----------------------------------------------|
|-----------------------------------------------|
|---5---------3---------------------------------|
|---5---------3-------------------3-------------|
|---3---------1---------1---------3-------------|
|-----------------------1---------1-------------|
    There is nothing like it so go out there and win



         PM		PM           PM		    pm
     |-------|     |-------|	   |------|     |------|
|-----------------------------------------------------------------|
|-----------------------------------------------------------------|
|---5---------5---3---------3---1---------1-----------------------|
|---5-5-5-5-5-5---3-3-3-3-3-3---1-1-1-1-1-1---3---------3---------|
|---3-3-3-3-3-3---1-1-1-1-1-1---1-1-1-1-1-1---3-3-3-3-3-3---------|
|---------------------------------------------1-1-1-1-1-1---------|
    yeah  you  are  a  skinhead  and  you  should  be  proud in  what  you  are


  


       PM		PM           PM		    pm
     |-------|     |-------|	   |------|     |------|
|-----------------------------------------------------------------|
|-----------------------------------------------------------------|
|---5---------5---3---------3---1---------1-----------------------|
|---5-5-5-5-5-5---3-3-3-3-3-3---1-1-1-1-1-1---3---------3---------|
|---3-3-3-3-3-3---1-1-1-1-1-1---1-1-1-1-1-1---3-3-3-3-3-3---------|
|---------------------------------------------1-1-1-1-1-1---------|
       yes  you are a skinhead and the victory ain't that far, it ain't that far


Intro 6x
Verse 
Chorus
Verse
Chorus
Verse
Chorus 2x

Добавлено: 15.04.2012
Другие материалы по этой песне:
  • Аккорды и текст

Страница создана 15.04.2012
http://primanota.ru/skrewdriver/national-socialist-chords.htm
Привет, Гость.
Предлагаем пройти революционный курс по гитаре.
Подарок от PrimaNota.Ru, забирай!