PrimaNota.ru - самый крупный в мире бесплатный архив песенных текстов, аккордов, табулатур и нот


Skrewdriver - I Know What I Want - текст песни, таба, видео

Регистрация Запомнить меня
Войти через:  Facebook Google Twitter Vk Yandex Mail.ru

Skrewdriver - I Know What I Want - текст песни, таба, видео

Печатать
Просмотров: 215
Уроки эстрадного вокала в Санкт-Петербурге
I Know What I Want by: Skrewdriver

Verse:
   G           Bb         F          C
E|-----------------------------------------------------------|
B|-----------------------------------------------------------|
G|-----------------------------------------------------------|
D|-------------3--3--3---------------5--5--5--5--5--5--5--5--|
A|--5--5--5----1--1--1----3--3--3----3--3--3--3--3--3--3--3--|
E|--3--3--3---------------1--1--1----------------------------|

Chorus:
    G                       Bb
E|--------------------------------------------------|
B|--------------------------------------------------|
G|--------------------------------------------------|
D|--------------------------3--3--3--3--3--3--3--3--|
A|--5--5--5--5--5--5--5--5--1--1--1--1--1--1--1--1--|
E|--3--3--3--3--3--3--3--3--------------------------|

    F                       C
E|--------------------------------------------------|
B|--------------------------------------------------|
G|--------------------------------------------------|
D|--------------------------5--5--5--5--5--5--5--5--|
A|--3--3--3--3--3--3--3--3--3--3--3--3--3--3--3--3--|
E|--1--1--1--1--1--1--1--1--------------------------|

Then this X4
    G                       F
E|--------------------------------------------------|
B|--------------------------------------------------|
G|--------------------------------------------------|
D|--------------------------------------------------|
A|--5--5--5--5--5--5--5--5--3--3--3--3--3--3--3--3--|
E|--3--3--3--3--3--3--3--3--1--1--1--1--1--1--1--1--|

    C                                        Bb
E|--------------------------------------------------|
B|--------------------------------------------------|
G|--------------------------------------------------|
D|--5--5--7--5--5--5--7--5--5--5--7--5--5----3------|
A|--3--3--3--3--3--3--3--3--3--3--3--3--3----1------|
E|--------------------------------------------------|

Solo begins like this:

E|--------------------------------------------------|
B|--------------------------------------------------|
G|--5b7--5b7---5--3-----5b7----5b7--5b7--5p3--3-----|
D|-------------------5---------------------------5--|
A|--------------------------------------------------|
E|--------------------------------------------------|

I am sorry but I might
tab out the rest of the solo some time.
Добавлено: 24.06.2013
Другие материалы по этой песне:
  • Аккорды и текст

Страница создана 02.04.2012
http://primanota.ru/skrewdriver/i-know-what-i-want-chords.htm
Привет, Гость.
Предлагаем пройти революционный курс по гитаре.
Подарок от PrimaNota.Ru, забирай!