PrimaNota.ru - самый крупный в мире бесплатный архив песенных текстов, аккордов, табулатур и нот


Ska-p - Paramilitar - текст песни, таба, видео

Регистрация Запомнить меня
Войти через:  Facebook Google Twitter Vk Yandex Mail.ru

Ska-p - Paramilitar - текст песни, таба, видео

Печатать
Просмотров: 124
Intro :

e|--------------------------------|
A|--------------------------------|
D|--------------------------------|
G|--------4---4-------------------|
B|/5----5---5---5---------3-3-3h4-|
E|----------------5-----5---------|

e|--------------------------------|
A|--------------------------------|
D|--------------------------------|
G|--------4---4-------------------|
B|-5----5---5---5---------3---4---|
E|----------------5-----5---------|

Verse 1 :

D
Situación de alarma, América latina muere
D
El Ejército zapatista va cogiendo poder
D
Todos los indígenas son presos del fascismo
D
Con un pañuelo van cubriendo su tez
D
Terrorista, xenófobo, racista, ese kacique no quiere comprender
D
Que la represión es el reflejo del fascista
D
Que todo el pueblo unido se echará a la montaña zapatista

Pre - Chorus :

D                      C
Todos bienvenidos a la fría realidad
D                         C
Todos bienvenidos al territorio libertad
D                      C
Todos bienvenidos al encuentro de la dignidad
D                     C
Todos con Zapata, rebeldía, solidaridad

D A G D x2

Chorus (x2)

RIFF 1
e|--------------------------------|
A|--------------------------------|
D|--------------------------------|
G|-------------------------3------| x2
B|-3h5---3h5---3h5---3h5-------5--|
E|--------------------------------|

D
Al paramilitar tenemos que eliminar
F
Al paramilitar tenemos que eliminar
G
Al paramilitar tenemos que eliminar
F                      E
Paramilitar, ¡racista criminal!

Verse 2 :

D
Comienza a amanecer en el sureste mexicano
D
Y el subcomandante Marcos le responde al poder
D
Por toda la injusticia, violación y asesinato
D
Alza su voz, el pueblo debe saber
D
No hay fronteras , ni patria, ni bandera
D
Nada en el mundo le podrá detener
D
La revolución ha comenzado ya en Chiapas
D
Por la humanidad y en contra de la represión del capital

Pre - Chorus 

Chorus (x2) 

Solo :

e|-------------------------------------------------|
A|-------------------------------------------------|
D|-5-5-5-5-5-5-5-5-5-4-5-4-------------------------|
G|-------------------------7-----------------------|
B|-------------------------------------------------|
E|-------------------------------------------------|

e|---------------------------------------------------|
A|---------------------------------------------------|
D|-5-5-5-5-5-5-5-4-5-7-5-4-5-7-----------------------|
G|-----------------------------7-------------5h6h7---|
B|---------------------------------------------------|
E|---------------------------------------------------|

e|-----8-----7-----5-----7-----7h8-----8-----7-----5-----7---------|
A|-------------------------------------------------------------7v--|
D|-7-7---7-7---7-7---7-7---7-7-----7-7---7-7---7-7---7-7---7-7-----|
G|-----------------------------------------------------------------|
B|-----------------------------------------------------------------|
E|-----------------------------------------------------------------|

e|---------------------------------7------------7--------------|
A|-7-10p8p7-10p8p7-10p8p7-10p8p7-------10---8-------10---8-----|
D|-------------------------------------------------------------|
G|-------------------------------------------------------------|
B|-------------------------------------------------------------|
E|-------------------------------------------------------------|

e|---------------7-----------------|
A|-7----8---10--------10---8v--7---|
D|---------------------------------|
G|---------------------------------|
B|---------------------------------|
E|---------------------------------|

Verse 3 :

D
Los paramilitares asesinan campesinos
D                                     C - C# -
Y el gobierno mexicano nada quiere saber
D
La esperanza de los indios esta latente en la guerrilla
D
Hombres y mujeres con Zapata juntos vamos a vencer

Pre - Chorus

Chorus (x2)

 RIFF 2 (palm mute)
e|-----------------------------------------------------------------|
B|-----------------------------------------------------------------|
G|-----------------------------------------------------------------| x2
D|-----------------333---33333-333---------------------------------|
A|-555---55555-555-----------------111---11111-111-----------------|
E|-------------------------------------------------333---33555-555-|
 RIFF 2 (guitar 2)
e|---------------------------------|
A|---------------------------------|
D|---------------------------------|
G|-------------------------3---3h5-| x4
B|-3h5-5-3h5-5-3h5-5-3h5-5---5-----|
E|---------------------------------|

Chorus
 
End in D

Добавлено: 16.09.2013
Другие материалы по этой песне:

Страница создана 14.04.2012
http://primanota.ru/ska-p/paramilitar-chords.htm
Привет, Гость.
Предлагаем пройти революционный курс по гитаре.
Подарок от PrimaNota.Ru, забирай!