PrimaNota.ru - самый крупный в мире бесплатный архив песенных текстов, аккордов, табулатур и нот


Sixto Rodriguez - Ill Slip Away - таба, видео

Регистрация Запомнить меня
Войти через:  Facebook Google Twitter Vk Yandex Mail.ru

Sixto Rodriguez - Ill Slip Away - таба, видео

Печатать
Просмотров: 99
Sixto Rodriguez - I'll slip away (Solo)

The album version has this beautiful acoustic metal-strings SOLO:
https://www.youtube.com/watch?v=sycW0zUQQXY#t=1m42s  (starts at 01:42)

Tuning: Standard

e --------------------------------|
B -11b12-----11b12-11b12-11b12-9~-|
G --------------------------------|
D --------------------------------|
A --------------------------------|
E --------------------------------|

e -----------------------------------|
B ------9------9------9--------------|
G -8h10---8h10---8h10---8~-6h8p6--6~-|
D -----------------------------------|
A -----------------------------------|
E -----------------------------------|

e -------------------------------9----------|
B -11b12-----11b12-11b12-9-11b12---11b12-9--|
G ------------------------------------------|
D ------------------------------------------|
A ------------------------------------------|
E ------------------------------------------|

e -----------------------|
B --------9---9----------|
G -8h10p8---8---8~-6-6~--|
D -----------------------|
A -----------------------|
E -----------------------|

Notation:
"11b12" means pluck fret 11, and then bend the string until it sounds like fret 12
"8~" vibrato
Добавлено: 29.11.2015
Другие материалы по этой песне:
  • Аккорды и текст

Страница создана 29.11.2015
http://primanota.ru/sixto-rodriguez/ill-slip-away-chords.htm
Привет, Гость.
Предлагаем пройти революционный курс по гитаре.
Подарок от PrimaNota.Ru, забирай!