PrimaNota.ru - самый крупный в мире бесплатный архив песенных текстов, аккордов, табулатур и нот


Siouxsie And The Banshees - Switch - текст песни, бас-таба, драм-таба, видео

Регистрация Запомнить меня
Войти через:  Facebook Google Twitter Vk Yandex Mail.ru

Siouxsie And The Banshees - Switch - текст песни, бас-таба, драм-таба, видео

Печатать
Просмотров: 118
Авторы: Kenny Morris, Steven Severin
Авторы музыки: John McKay
Авторы текста: Siouxsie Sioux
SWITCH
Siouxsie And The Banshees

Taken from the Polydor album The Scream (1978/2005 Reissue)

Transcribed by: Damian Pamminger (TwitcheD_85@hotmail.com)

Standard tuning: E A D G

Pause

Fig. 1a (1x)
|--------------------|---------------|-------------------------------|
|------------5-------|----REPEAT-----|------------5------------------|
|-5-5----------------|-eighteen-more-|-5-5---------------------------|
|--------------------|-----times-----|-------------------------------|

Pause

Fig. 2a (1x)
|---------------------------------|----------|---------------------------|
|-5-------------------------------|--REPEAT--|-5-------------------------|
|-----5-0-0-0-0-0-1-1-1-1-1-1-1-0-|-two-more-|-----5-0-0-0-0-0-3-3-3-3-3-|
|---------------------------------|--times---|---------------------------|

|-------|
|-------|
|-3-3-0-|
|-------|

Fig. 2b (1x)
|----------------------------------|----------|----------------------------|
|-5--6-7-7-7-7-\-------------------|--REPEAT--|-5--6-7-7-7-7-\-------------|
|----------------0-1-1-1-1-1-1-1-0-|-two-more-|----------------0-3-3-3-3-3-|
|----------------------------------|--times---|----------------------------|

|-------|
|-------|
|-3-3-0-|
|-------|

Fig. 2a (1x)

Fig. 2c (1x)
|----------------------------------------------------|
|-5--------------------------------------------------|
|-----5-0-0-0-0-0-3-3-3-3-3-3-3-3-3------------------|
|----------------------------------------------------|

Pause

Fig. 3 (1x)
|------------------------------------------|------------|-----------------|
|------------------------------------------|---REPEAT---|-----------------|
|-7-\-3------3--0------0--2------2-/-7-----|-eight-more-|-7-\-3------3--0-|
|------------------------------------------|---times----|-----------------|

|--------------------------------------|
|--------------------------------------|
|-----0--2------2-/-7------------------|
|--------------------------------------|

Pause

Fill 1 (1x)
|------|
|-12-\-|
|------|
|------|

Fig. 2d
|---------------------------------|--------|---------------------------|
|-5-------------------------------|-REPEAT-|-5-------------------------|
|-----5-0-0-0-0-0-1-1-1-1-1-1-1-0-|--------|-----5-0-0-0-0-0-3-3-3-3-3-|
|---------------------------------|--------|---------------------------|

|-------|
|-------|
|-3-3-0-|
|-------|

Fig. 2b (1x)
Fig. 2a (1x)
Fig. 2c (1x)
Pause

Fig. 1b (1x)
|--------------------|
|------------5-------|
|-5-5----------------|
|--------------------|

Fill 2 (1x)
|---|
|---|
|-5-|
|---|

Fig. 1c (1x)
|---------------------------------|----------|-----------------------------|
|-----------------5-5-5-5-5-5-5-5-|--REPEAT--|-----------------5-5-5-5-5-5-|
|-5-5-5-5-5-5-5-5-----------------|-two-more-|-5-5-5-5-5-5-5-5-------------|
|---------------------------------|--times---|-----------------------------|

|-------------------------------------------------------------------------|
|-5-5/-12-12-12-12-12-12-12-12\-5-5-5-5-5-5-5-5/-12-12-12-12-12-12-12-12\-|
|-------------------------------------------------------------------------|
|-------------------------------------------------------------------------|

|-------------------------------------------------------------------------|
|-5-5-5-5-5-5-5-5-----------------5-5-5-5-5-5-5-5-----------------5-5-5-5-|
|-----------------5-5-5-5-5-5-5-5-----------------5-5-5-5-5-5-5-5---------|
|-------------------------------------------------------------------------|

|----------------------------|----------------------|----------|----------
|-5-5-5-5----------5-5-------|------------5-5-------|--REPEAT--|----------
|---------5------------------|-5-5------------------|-two-more-|-5-5------
|----------------------------|----------------------|--times---|----------

|-------------------------------------------------------------------------|
|-5-5-5-5-5-5-5-5-5-----------------5-5-5-5-5-5-5-5-----------------5-5-5-|
|-------------------5-5-5-5-5-5-5-5-----------------5-5-5-5-5-5-5-5-------|
|-------------------------------------------------------------------------|

|------------------------------------------------------------------------|
|-5-5-5-5-5/-12-12-12-12-12-12-12-12\-5-5-5-5-5-5-5-5/-12-12-12-12-12-12-|
|------------------------------------------------------------------------|
|------------------------------------------------------------------------|

|------------------------|---------------------------------|--------|
|-12-12\-5-5-5-5-5-5-5-5-|-----------------5-5-5-5-5-5-5-5-|-REPEAT-|
|------------------------|-5-5-5-5-5-5-5-5-----------------|--------|
|------------------------|---------------------------------|--------|

|--------------------|------------|
|----------5-5-------|---REPEAT---|
|-5------------------|-three-more-|
|--------------------|---times----|

End
|--------------------|
|--------------------|
|-5------------------|
|--------------------|

Pause until end
Добавлено: 21.04.2012
Другие материалы по этой песне:

Страница создана 01.03.2012
http://primanota.ru/siouxsie-and-the-banshees/switch-chords.htm
Привет, Гость.
Предлагаем пройти революционный курс по гитаре.
Подарок от PrimaNota.Ru, забирай!