PrimaNota.ru - самый крупный в мире бесплатный архив песенных текстов, аккордов, табулатур и нот


Siouxsie And The Banshees - Cascade - текст песни, таба, бас-таба, драм-таба, видео

Регистрация Запомнить меня
Войти через:  Facebook Google Twitter Vk Yandex Mail.ru

Siouxsie And The Banshees - Cascade - текст песни, таба, бас-таба, драм-таба, видео

Печатать
Просмотров: 171
Уроки эстрадного вокала в Санкт-Петербурге
Авторы музыки: John McGeoch, Siouxsie Sioux, Peter Clarke, Steven Severin
Авторы текста: Steven Severin
Cascade, as played here: http://www.youtube.com/watch?v=ekuPfC6rxwI


Intro + verses
just listen to it to get the timing right.. there are no pauses, just harder and softer attacks.

   16x  16x
e|----------------------------------------------------------------------------|
B|----------------------------------------------------------------------------|
G|----------------------------------------------------------------------------|
D|----------------------------------------------------------------------------|
A|--5----4----7-7-7-8-8-8-7-7-7-8-8-8-7-7-8-8-7-7-7-5-5-5-7-7-7-5-5-5-7-7-5-5-|
E|----------------------------------------------------------------------------|


Pre-chorus

e|-------------------10-------10--------------------10----10-----|
B|-10-10-10-10-10-10----10-10----10-10----10--10--10--10----10---|
G|--------------------------------------12--12--12------12----12-|
D|---------------------------------------------------------------|
A|---------------------------------------------------------------|
E|---------------------------------------------------------------|

e|-10----10----10----10----10----10------10------10------10------10-|
B|---11----11----11----11----11------10------10------10------10-----|
G|-----14----14----14----14----14--14--14--14--14--14--14--14--14---|
D|------------------------------------------------------------------|
A|------------------------------------------------------------------|
E|------------------------------------------------------------------|


Chorus
  ________10x then
e|-------0------------0---0---|
B|---6--------------6---6---6-|
G|-7---7-----------7-7-7-7-7--|
D|----------------------------|
A|----------------------------|
E|----------------------------|


Outro

e|--------------------------------------------------------------------------|
B|--------------------------------------------------------------------------|
G|-7--9--10-7--9--10-9--10-12--9--10-12--12--14--15--12--14--15--14--18--19-|
D|--------------------------------------------------------------------------|
A|-5--7--8--5--7--8--7--8--10--7--8--10--10--12--13--10--12--13--12--16--17-|
E|--------------------------------------------------------------------------|


Last verse

with timed delay (or else just play everything twice)

e|-----5-5-----6-9-10-10-13-13-17-17-17-17-|
B|-6-6-6-6-5-5-5-8-11-11-11-11-15-15-15-15-|
G|-7-7-7-7-6-6-6-9-12-12-12-12-14-14-14-14-|
D|---------5-5-5-8-------------------------|
A|-----------------------------------------|
E|-----------------------------------------|


Open chords at the end
(probably)

e|----0-|
B|---6--|
G|--7---|
D|-0----|
A|------|
E|------|


Song structure:

Intro 3x
Pre-chorus 1x
Chorus 2x
Outro 1x
Intro 1x
Pre-chorus 1x
Chorus 2x
Outro 1x
Last verse 2x
Pre-chorus 1x
Chorus 2x
Outro 2x (*here the guitars start to layer, so theres one playing the chorus and later 
the end of

the pre-chorus
Chorus 4x
Open Chords 4x


Tabbed by D.Guedes. Comments and corrections are, as usually, welcome @ dguedes@gmail.com

=)
Добавлено: 25.07.2012
Другие материалы по этой песне:

Страница создана 29.03.2012
http://primanota.ru/siouxsie-and-the-banshees/cascade-chords.htm
Привет, Гость.
Предлагаем пройти революционный курс по гитаре.
Подарок от PrimaNota.Ru, забирай!