PrimaNota.ru - самый крупный в мире бесплатный архив песенных текстов, аккордов, табулатур и нот


Siouxsie And The Banshees - Christine - текст песни, таба, бас-таба, драм-таба, видео

Регистрация Запомнить меня
Войти через:  Facebook Google Twitter Vk Yandex Mail.ru

Siouxsie And The Banshees - Christine - текст песни, таба, бас-таба, драм-таба, видео

Печатать
Просмотров: 110
Авторы музыки: Siouxsie Sioux, Steven Severin
Авторы текста: Steven Severin
-------------------------------------------------------------------------------
                             CHRISTINE - Siouxsie And The Banshees
-------------------------------------------------------------------------------
Tabbed by: Michael Greer

Tuning: Standard or Half Step Down


Verse:

   e|-0-------------|-0-------------|-0-------------|-0-------------|
   B|-0-------------|-0-------------|-0-------------|-0-------------|
   G|-2-------------|-2-------------|-2-------------|-2-------------|
   D|-3-------------|-3-------------|-3-------------|-3-------------|
   A|-3-------------|-3-------------|-3-------------|-3-------------|
   E|-1-------------|-1-------------|-1-------------|-1-------------|

Chorus:  Played very fast

   e|-----------------------------------------------------------------|
   B|-----------------------------------------------------------------|
   G|9-9-9-9-9-9-9-9-9-9-9-9---12-12-12-12-12-12---11-11-11-11-11-11--|
   D|-----------------------------------------------------------------|
   A|7-7-7-7-7-7-7-7-7-7-7-7---10-10-10-10-10-10----9--9--9--9--9--9--|
   E|-----------------------------------------------------------------|

   e|--------------------------------------------------------------------------------|
   B|--------------------------------------------------------------------------------|
   G|6-6-6-6-6-6---7-7-7-7-7-7-7-7-7-7-7-7---6-6-6-6-6-6---7-7-7-7-7-7-7-7-7-7-7-7---|
   D|--------------------------------------------------------------------------------|
   A|4-4-4-4-4-4---5-5-5-5-5-5-5-5-5-5-5-5---4-4-4-4-4-4---5-5-5-5-5-5-5-5-5-5-5-5---|
   E|--------------------------------------------------------------------------------|

Bridge:  Strumming on the upbeat

   e|-X--7--X--7--X--7--X--7-|-X--7--X--7--X--7--X--7-|
   B|-X--7--X--7--X--7--X--7-|-X--9--X--9--X--9--X--9-|
   G|-X--8--X--8--X--8--X--8-|-X--9--X--9--X--9--X--9-|
   D|-X--9--X--9--X--9--X--9-|-X--9--X--9--X--9--X--9-|
   A|-X--9--X--9--X--9--X--9-|-X--7--X--7--X--7--X--7-|
   E|-X--7--X--7--X--7--X--7-|-X--7--X--7--X--7--X--7-|

Outro:

   e|-0--------10--10--|-0--------10--10--|-0--------10--10--|-0--------10--10--|
   B|-0--------10--10--|-0--------10--10--|-0--------10--10--|-0--------10--10--|
   G|-2----------------|-2----------------|-2----------------|-2----------------|
   D|-3---------9---9--|-3---------9---9--|-3---------9---9--|-3---------9---9--|
   A|-3--------10--10--|-0--------10--10--|-0--------10--10--|-0--------10--10--|
   E|-1----------------|-1----------------|-1----------------|-1----------------|


-------------------------------------------------------------------------------


Verse: X8

   She tries not to shatter, kaleidoscope style
   Personality changes behind her red smile
   Every new problem brings a stranger inside
   Heplessly forcing one more new disguise


Chorus: X4

   Christine-the strawberry girl
   Christine-banana split lady
   Christine-the strawberry girl
   Christine-banana split lady


Keyboard riff:  Optional

   e|----7--4--------|----7--4-------|----7--4--------|----7--4--------|
   B|-4--------7-----|-4--------7----|-4--------7-----|-4--------10----|
   G|-------------6--|---------------|-------------6--|----------------|
   D|----------------|---------------|----------------|----------------|
   A|----------------|---------------|----------------|----------------|
   E|----------------|---------------|----------------|----------------|


Verse: X8

   Singing sweet savages lost in our world
   This big eyed-girl sees her faces unfurl
   Now's she's in purple
   Now's she's the turtle


Chorus: X4

   Christine-the strawberry girl
   Christine-banana split lady
   Christine-the strawberry girl
   Christine-banana split lady


Bridge: X4


Verse: X8


   Now's she's in purple
   Now's she the turtle

   Disintegrating

   Christine, Christine


Chorus: X4


   Christine-the strawberry girl
   Christine-banana split lady
   Christine-the strawberry girl
   Christine-banana split lady


Outro: X16


   Christine, Christine, Christine, Christine turn into faces
 
   Disintegrating

   Christine, Christine, Christine

   Disintegrating.......

End on:

   e|-0-|
   B|-0-|
   G|-2-|
   D|-3-|
   A|-3-|
   E|-1-|

==========================================================================
Добавлено: 24.06.2016
Другие материалы по этой песне:

Страница создана 10.03.2012
http://primanota.ru/siouxsie-and-the-banshees/christine-chords.htm
Привет, Гость.
Предлагаем пройти революционный курс по гитаре.
Подарок от PrimaNota.Ru, забирай!