PrimaNota.ru - самый крупный в мире бесплатный архив песенных текстов, аккордов, табулатур и нот


Sigur Ros - Agaetis Byrjun - аккорды и текст, таба, видео

Регистрация Запомнить меня
Войти через:  Facebook Google Twitter Vk Yandex Mail.ru

Sigur Ros - Agaetis Byrjun - аккорды и текст, таба, видео

Печатать
Просмотров: 196
Уроки эстрадного вокала в Санкт-Петербурге
Agaetis Byrjun
Sigur Ros
		   Sigur Ros
Agaetis Byrjun
----------------------------
If you have ideas how to improve this tab (and you certainly will have some), please add them to this site.

This is how the song begins, it's extremely easy:

E------------------------------------------------------------------------------------
B------------------------------------------------------------------------------------
G----0---------0-----------0--------0--------------0--------0----------------0-------
D--0-----0--4-----0-----0--------0--------0-----0--------0---------0------0----------
A--------------------3--------3--------3-----2--------2---------2------3-------------
E------------------------------------------------------------------------------------

E-------------------
B-------------------
G------------0------
D------0/2-------0--
A--3----------------
E-------------------

These are the main tunes, their order can vary throughout the song; just listen to it and you'll find out. Please contribute some new ideas to the site.     
Добавлено: 27.06.2013
Другие материалы по этой песне:

Страница создана 14.04.2012
http://primanota.ru/sigur-ros/agaetis-byrjun-chords.htm
Привет, Гость.
Предлагаем пройти революционный курс по гитаре.
Подарок от PrimaNota.Ru, забирай!