PrimaNota.ru - самый крупный в мире бесплатный архив песенных текстов, аккордов, табулатур и нот


Sigur Ros - Rains Of Castamere - таба, видео

Регистрация Запомнить меня
Войти через:  Facebook Google Twitter Vk Yandex Mail.ru

Sigur Ros - Rains Of Castamere - таба, видео

Печатать
Просмотров: 108
-------------------------------------------------------------------------------
                             SONG NAME - Band Name
-------------------------------------------------------------------------------
Tabbed by:
E-mail:

Tuning: Two full steps down 

I don't not own this tab or song. I also take no responsibility for any copyright claims by the artists
or any third party claimants.


e|--C------------------------------------------------------------------------|
B|--G------------------------------------------------------------------------|
G|--D#-----------------------------------------------------------------------|
D|--A#-----------------------------------------------------------------------|
A|--F------------------------------------------------------------------------|
E|--C------------------------------------------------------------------------|
                                Intro
e|---------------------------------------------------------------------------|
B|--1---------0-----1--3------0--------------------0-------------------------|
G|--2---------------2--4-------------7-5-4-5-------------2-------------------|
D|--2---------------2--3---------------------------------2-------------------|
A|--0-----0---------0--0--0--------0-----------0---------0-------------------|
E|---------------------------------------------------------------------------|

e|------8------7------8---10---7---------10---8---7---8---7-------7----------|
B|--------------------------------------------------------0------------------|
G|--------------------9---10---7---------10---9---7---9---7---7--------------|
D|------7------7-------------------------------------------------------------|
A|--0------0------0------------------0---------------------------------------|
E|--------------------------------------------------------0------------------|

e|--0-----------0---1-----------1---0----------------------------------------|
B|--1-------3---1-----------3---3-------3---1---0----------------------------|
G|--0-----------0---------------2---------------1-------1--------------------|
D|------------------------------0---------------2----------------------------|
A|--3---3-------3-------3----------------------------------------------------|
E|----------------------------------------------0---0------------------------|

e|----------5--------5--------5-----------|--------5--------5--------5-------|
B|o---------------------------------0----o|----------------------------------|
G|-------5--------5--------5--------------|-----5--------4--------4-----2----|
D|----3---------------------------------x3|--3--------------------------2----|
A|o------------3--------0--------0-------o|-----------2--------0--------0----|
E|----------------------------------------|----------------------------------|
                                Verse
e|---------------------------------------------------------------------------|
B|---1-------0---1---3-------0---3---1--0--1---0-----------------------------|
G|---2-----------2---4-----------2-------------1------1----------------------|
D|---2-----------2---3-----------2-------------2-----------------------------|
A|---0---0-------0---0---0-------0-------------------------------------------|
E|---------------------------------------------0---0-------------------------|

e|--0-----------0---1-----------1---0----------------------------------------|
B|--1-------3---1-----------3---3-------3---1--------------------------------|
G|--0-----------0---------------2---------------2-------2--------------------|
D|------------------------------0---------------2----------------------------|
A|------3-------3-------3-----------------------0---0------------------------|
E|--3------------------------------------------------------------------------|
                                Chorus
e|---------------------------------------------------------------------------|
B|----------1---1-----------3---0---3---3---1--0--1---0-----------1---1------|
G|------4-------2-------5-------0-------2-------------0-------4-------2------|
D|--------------2---------------2-------2-------------2---------------2------|
A|--0-----------0---0-------------------0-----------------0-----------0------|
E|------------------------------0---------------------0----------------------|

e|----------------------------------------0----------------------------------|
B|--3/5-------5---3-------3-------1----------3--0--1-------------------------|
G|--------------------2--------------------------------2-----2---------------|
D|--------0--------------------------------------------2---------------------|
A|-----------------------------------------------------0--0------------------|
E|----------------------------1-------0--------------------------------------|

e|---------------------------------------------------------------------------|
B|------5-------3---------5---6---3--------1---------------------------------|
G|-------------------------------------------------4---2-------2-------------|
D|------2-------0---------2---3---0--------------------2---------------------|
A|--0-------0---------0----------------0-------0-------0---0-----------------|
E|---------------------------------------------------------------------------|

Thank you for reading this tab. 

Owner of the tab is Evan Handyside.
His performance of this tab is at http://youtu.be/57nkDCwE1zA.
 

************************************

| /   slide up
| \   slide down
| h   hammer-on
| p   pull-off
| ~   vibrato
| +   harmonic
| x   Mute note


************************************
Добавлено: 16.10.2015
Вам также может быть интересно:
Другие материалы по этой песне:
  • Аккорды и текст

Страница создана 16.10.2015
http://primanota.ru/sigur-ros/rains-of-castamere-chords.htm
Привет, Гость.
Предлагаем пройти революционный курс по гитаре.
Подарок от PrimaNota.Ru, забирай!