PrimaNota.ru - самый крупный в мире бесплатный архив песенных текстов, аккордов, табулатур и нот


Sid - Hoshi No Miyako - таба, видео

Регистрация Запомнить меня
Войти через:  Facebook Google Twitter Vk Yandex Mail.ru

Sid - Hoshi No Miyako - таба, видео

Печатать
Просмотров: 232
Artist:  SID
Song:    Hoshi no Miyako


INTRO:

      G                                                 D


E  --------------------------------------10-----------------------|
B  --10-8---10-8---10-8--------8-10-8-7-8--10-8---10-8--10-7------|
G  -------7------7------7-----7-7----------------7-----------7----|
D  ---------------------------------------------------------------|
A  ---------------------------------------------------------------|
E  ---------------------------------------------------------------|


G                          C          D            G
 Sotsugyou no MOOD isshoku  ukareta mawari yoso me ni
            Em        C             D        G
Mada minu miyako omoi  kono mune wo kogasu hibi

                          D

E  ----------------10-----------------------|
B  --10-8---10-8-----10-8-7-----------------|
G  -------7------7--------7-----------------|
D  -----------------------------------------|
A  -----------------------------------------|
E  -----------------------------------------|


G                         C             D        G
  Kami wo kitta nakama ya   hiki tometa namida kao
           Em            C               B
Itoshii ni kawari wa nai   michi ga chigau dake

C           D  Bm         Em  C        D              G      G7
Te wo nobaseba todoku you na    omoi komi ga kouchite ima sa oh!
C          D  Bm   F#m     Em   C             D           G
Yukkuri de mo toomawari de mo    sore mo mata hitotsu no STYLE


(Solo)

     C    D      Em             C  B            D          B7

E  ------------------------------------------------------------------|
B  ------------------------------------------------------------------|
G  ------------------------------------------------------------------|
D  ---------5-4 \7-5--4-5-7-5-4-----------------7--9-7---------7-9---|
A  --3 \7-5---------------------7--5-7-5----9-10------10-9-9-10------|
E  -------------------------------------8-7--------------------------|

Em    Bm             C          G
Hoshi no nai sora no shita ugomeku
Em      Bm            C      B
  kazoe kirenai hoshi no kakera

C          D  Bm           Em  C         D         G
Hitonigiri to dare ka ga itta    manzara uso janai boku mo omou
C          D  G               Em  C            B
Hitonigiri wo tsukamu tsuyosa mo    hanasu yowasa mo sou

C           D  Bm          Em  C         D             G      G7
Kimi shidai sa kimi shidai sa    kanchigai mo rippa na sainou sa
C            D  G     F#m  Em  C             D        Em  Em7   A
Yume no tsuzuki mitakunattara    nan do demo yusareru j i d a i
C            D
 Suteki na kimi dake no...

     G
... STYLE

E  -----10----------------------------------------------------10------------|
B  -8-7--10-8---10-8---10-8---10-8-----8-10-8-7-8--10-8--10-8--10-8--10-8---|
G  ----7------------7------7-------7--7-7--------------7-----7-----7--------|
D  -------------------------------------------------------------------------|
A  -------------------------------------------------------------------------|
E  -------------------------------------------------------------------------|

(3:29)

E  --------------------------------------10-----------------------|
B  --10-8---10-8---10-8--------8-10-8-7-8--10-8---10-8--10-8--8---|
G  -------7------7------7-----7-7----------------7-----------7----|
D  ---------------------------------------------------------------|
A  ---------------------------------------------------------------|
E  ---------------------------------------------------------------|

This is an easy and beautiful song.
Have fun.

Thank you for watch it and play it.
Добавлено: 31.07.2012
Вам также может быть интересно:
Другие материалы по этой песне:
  • Аккорды и текст

Страница создана 31.07.2012
http://primanota.ru/sid/hoshi-no-miyako-chords.htm
Привет, Гость.
Предлагаем пройти революционный курс по гитаре.
Подарок от PrimaNota.Ru, забирай!