PrimaNota.ru - самый крупный в мире бесплатный архив песенных текстов, аккордов, табулатур и нот


Sid - Yell - текст песни, таба, видео

Регистрация Запомнить меня
Войти через:  Facebook Google Twitter Vk Yandex Mail.ru

Sid - Yell - текст песни, таба, видео

Печатать
Просмотров: 147
Artist:  SID
Song:    Yell


Notes:

* "Solo part" seconds are aproximated, yourself please.


Chords:


    E5        B5      E/D#    c#5
           (Better)        (For 2:07)
E---------_--------_-------_--------_---------|
B---------_--------_-------_--------_---------|
G---9-----_--------_---9---_--------_---------|
D---9-----_---9----_---9---_---14---_---------|
A---7-----_---9----_---6---_---14---_---------|
E---------_---7----_-------_---12---_---------|

Intro:


E--12-14-16--12-14-16--------------------| (x 4)
B----------------------------------------|
G----------------------------------------|
D----------------------------------------|
A----------------------------------------|
E----------------------------------------|

E              A5                  C#5
 Tama ni wa ne   zenbu hakidashite
          A5     B5       E
kono te de uke tomesasete


E----------------------------------------|
B----------------------------------------|
G--13-13-13-14-14\13--13-13-13-14-14\13--|  (x3)
D--13-13-13-14-14\13--13-13-13-14-14\13--|
A----------------------------------------|
E----------------------------------------|


E----------------------------------------|
B----------------------------------------|
G--13-13-13-14-14\13--13'13'13-14  \  6--|
D--13-13-13-14-14\13--13'13'13-14  \  6--|
A-------------------------------------4--|
E----------------------------------------|

C#5     A5   B5     E
   Kimi wa hitori janai
C#5      A5   B5     E
   kesshite hitori janai

E--5-7-9-5-7-9--5-7-9-5-7-9--5-7-9-5-7-9--5-7-9-5-7-9-|
B-----------------------------------------------------|
G-----------------------------------------------------|
D-----------------------------------------------------|
A-----------------------------------------------------|
E-----------------------------------------------------|

C#5    A5   B5         E
      Koe todoita hi kara

     C#5     A5      B5      E5
kimi wa boku ni hitsuyou nan da

E--5-7-9-5-7-9--5-7-9-5-7-9--5-7-9-5-7-9--5-7-9-5-7-9-|
B-----------------------------------------------------|
G-----------------------------------------------------|
D-----------------------------------------------------|
A-----------------------------------------------------|
E-----------------------------------------------------|


C#5        A5               B5        E5
 Namida wo nagashi hito wa ookiku narerutte
C#5       A5             B5            E5   E/D#  C#5     A5
 Tsuyoi hito ga iu musekinin na kotoba ni nigeru  yori mo
       B5      E5    C#5        A5             B5      E5
 Koko de sawageba ii    egao no hou ga kimi wa utsukushii


          A5                  C#5
Ketten mo   kakudo kaeta nara
        A5      B5
kosei ni  umare kawaru sa


C#5    A5 B5  E
   Ima wo utaou
C#5      A5 B5  E
   issho ni utaou

C#5   A5  B5      E
    Koe dasenakutemo
     C#5     A5     B5      E5
kimi wa boku ni todoiteru kara


C#5          A5              B5          E5
  Konna ni suteki na keshiki wo misete kureru
C#5          A5              B5        E5   E/D#  C#5      A5
  Kondo wa boku no ban sunao ni Omoeta koto  e   kansha sa
   B5        E5    C#5          A5                  B5      E
Kaete kureta no wa    magure mo naku sou sa kimi no koe dakara


*A5 (1:50)

B5 (1:56)

E  (1:57)

A5 (2:00)

c#5(2:02)

A5 (2:05)

B5 (2:06)

C#5(2:07)


    A5 B5      E
Tabidatsu kimi e
C#5  A5      B5     E
    ERU(YELL)  okurou

C#5  A5   B5       E
   Koe tsuzuku kagiri
       C#5        A5  B5            E5
nan do mo  nan do mo ERU(YELL) okurou

C#5        A5               B5        E5
 Namida wo nagashi hito wa ookiku narerutte
C#5       A5             B5            E5   E/D#  C#5     A5
 Tsuyoi hito ga iu musekinin na kotoba ni nigeru  yori mo
       B5      E5    C#5        A5             B5      E5
 Koko de sawageba ii    egao no hou ga kimi wa utsukushii


C#5          A5              B5          E5
  Konna ni suteki na keshiki wo misete kureru
C#5          A5              B5        E5   E/D#  C#5      A5
  Kondo wa boku no ban sunao ni Omoeta koto  e   kansha sa
   B5        E5    C#5          A5                  B5      E
Kaete kureta no wa    magure mo naku sou sa kimi no koe dakara


E----------------------------------------|
B----------------------------------------|
G--13-13-13-14-14\13--13-13-13-14-14\13--|  (x4)
D--13-13-13-14-14\13--13-13-13-14-14\13--|
A----------------------------------------|
E----------------------------------------|


E5  ......


This is my favorite song by SID.

While I'm creating Guitar Pro files for all tabs that I made, because solo parts are so 
and a tab for those need quality. *v*

SID Chords don't appear in google's search so easy, that must be a joke.
Show out please...!!!

Comments:

joshel_999@hotmail.com
fjoshel@yahoo.com
Добавлено: 24.03.2012
Вам также может быть интересно:
Другие материалы по этой песне:
  • Аккорды и текст

Страница создана 24.03.2012
http://primanota.ru/sid/yell-chords.htm
Привет, Гость.
Предлагаем пройти революционный курс по гитаре.
Подарок от PrimaNota.Ru, забирай!