PrimaNota.ru - самый крупный в мире бесплатный архив песенных текстов, аккордов, табулатур и нот


Sid - Alibi - бас-таба, видео

Регистрация Запомнить меня
Войти через:  Facebook Google Twitter Vk Yandex Mail.ru

Sid - Alibi - бас-таба, видео

Печатать
Просмотров: 148
LISTEN TO THE SONG FIRST BEFORE PLAYING IT

INTRO:

G----------------------------------------------------------------------|
D---4------------------------------5-9-7-------------------9-----------|
A--2--2-4-5---2-4-5-4-2---------------9-7-----------2-10-12------------|
E-----------5-------------3-3-5-5-7-----7----0-0-2-5-5---------5-5-7-9-|

VERSE:

G--------------------------------------------------------------------|
D--------------------------------------------------------------------|
A--2--4-4-5---5-4--2--4-4-5----5----------2-4-4-5---5-4--2--4-4-2----|
E----------------------------7----7-5--------------------------------|


G---------------------------------------------------------------------|
D---9-7---------------------------------------------------------------|
A--7---9-7--------2--4-4-5--5-4--2--4-4-5-----5---------2--4-4-5--5-4-|
E---------7---------------------------------7----7--5-----------------|


G--------------------------------------------------------------------|
D---------------9-9-9------------------------------------------------|
A--2--4-4-2----------------------------------------------------------|
E--------------------------------------------------------------------|

CHORUS 1:
G--------------------------------------------------------------------|
D----4-----------------------------------------5-9-7-----------------|
A--2--2-4-5------2-4-5-4-2-----------------------------9-7-----------|
E-------------5------------------3-3-5-5-7-----------------7---------|


G----------------------------------11-9-7----------------------------|
D-------------------------4------9--------9-7----------4-------------|
A--2---------2-----2-2-2-----------------------2---2-4-5---2-4-5-4-2-|
E--0-0-2-5-5--3-5----------------------------------------5-----------|

G---------------------------------------------------------------------|
D-------------5-9-7---------------------------------9-----------------|
A--------------------9-7------------------2---10-12----10-10-12-12-14-|
E--3-3-5-5-7----------------7---0-0-2-5-5-----------------------------|

REPEAT VERSE

CHORUS 2:
G--------------------------------------------------------------------|
D------4-------------------------5-9-7----------------------------4--|
A--2-----2-4-5---2-4-5--4-2------------9-7------------------2--2-2-2-|
E--------------5------------3-3-5-5-7-------7--0-0-2-5-5-3-5---------|


G-----11-9-7----------------------------------------------------------|
D--9-------9-7----4-----------------------------5-9-7-----------------|
A-------------2----2-4-5-4-2------------------------9-7-------------2-|
E-------------------------5-------3-3-5-5-7-------------7---0-0-5-5---|

G--------------------------------------------------------------------|
D---------9----------------------------------------------------------|
A--10-12-------------------------------------------------------------|
E----3-3-5-5---------------------------------------------------------|

BRIDGE (GUITAR SOLO)
G--------------------------------------------------------------------|
D--7(7x)-5(6x)-4(7x)-7(8x)-------------------------------------------|
A--------------------------------------------------------------------|
E----------------------------3-5-7(12x)------------------------------|


G--------11-9--------------------------------------------------------|
D----5-7-----11-9----------------------------------------------------|
A--5--------------11-9--------------------------9(4x)----------------|
E----------------------11-9------------------------------------------|

CHORUS 3:

G---------------------------------------------------------------------|
D----4-------------------------------5-9-7----------------------------|
A--2---2-4-5----2-4-5-4-2---------------------9-7---------------------|
E-------------5-----------3-3-5-5-7---------------7---------0-0-2-5-5-|

G-----------------------------11-9-7---------------------------------|
D----------------------4----9--------9-7----------4------------------|
A--2--------2--2-2-2--------------------------2----2-4-5---2-4-5-4-2-|
E-----3-5-------------------------------------------------5----------|

G----------------------------------------------------------------------|
D------------------5-9-7-------------------------------------9---------|
A-----------------------9-7---------------------2-----10-12------------|
E--3-3-5-5-7-----------------7-------0-0-2-5-5---------------3-3-5-5-7-|

G---------------------------------------12-16-14-----------------------|
D----4-------------------------------------------16-14-----------------|
A--2--2-4-5-----2-4-5-4-2-------------------------------14-------------|
E--------------5-----------3-3-5-5-7-------------------------0-0-2-5-5-|

G----------------------------------------------------------------------|
D-------------9--------------------------------------------------------|
A--2---10-12-------10-10-12-12-14--------------------------------------|
E----------------------------------------------------------------------|

OUTRO:

G----------------------------------------------------------------------|
D----4-------------------------------5-9-7-----------------------------|
A--2--2-4-5----2-4-5-4-2------------------9-7-----------2(4x)-7(7x)----|
E-----------5------------3-3-5-5-7------------7---0-0-2-5-5------------|


Tabbed by Gjon
Добавлено: 09.10.2013
Другие материалы по этой песне:
  • Аккорды и текст

Страница создана 09.10.2013
http://primanota.ru/sid/alibi-chords.htm
Привет, Гость.
Предлагаем пройти революционный курс по гитаре.
Подарок от PrimaNota.Ru, забирай!