PrimaNota.ru - самый крупный в мире бесплатный архив песенных текстов, аккордов, табулатур и нот


Shinedown - Falling Fearless - таба, видео

Регистрация Запомнить меня
Войти через:  Facebook Google Twitter Vk Yandex Mail.ru

Shinedown - Falling Fearless - таба, видео

Печатать
Просмотров: 141
-----------------------------------------------------------------------------
                             Falling Fearless - Shinedown
-----------------------------------------------------------------------------
Tabbed by: DanielChaves0
E-mail: daniel.chaves@outlook.com

Tuning: Drop C# / Drop Db

D#|-------------------------------------------------------------|
A#|-------------------------------------------------------------|
F#|--5/7--7-7-7--7-7--5-5-5-------------------------------------|
C#|----------- -------------------------------------------------|
G#|--3/5--5-5-5--5-5--3-3-3--5-5-5-3h5-5-5-5--5-5-7-7-7-7-3-3-3-|
C#|--------------------------5-5-5-3h5-5-5-5--5-5-7-7-7-7-3-3-3-|

D#|-------------------------------------------------------------|
A#|-------------------------------------------------------------|
F#|--5/7--7-7-7--7-7--5-5-5-------------------------------------|
C#|----------- -------------------------------------------------|
G#|--3/5--5-5-5--5-5--3-3-3--5-5-5-3h5-5-5-5--5-5-7-7-7-7-3-3-3-|
C#|--------------------------5-5-5-3h5-5-5-5--5-5-7-7-7-7-3-3-3-|

D#|-------------------------------------------------------------|
A#|-------------------------------------------------------------|
F#|--5/7--7-7-7--7-7--5-5-5-------------------------------------|
C#|----------- -------------------------------------------------|
G#|--3/5--5-5-5--5-5--3-3-3--5-5-5-3h5-5-5-5--5-5-7-7-7-7-3-3-3-|
C#|--------------------------5-5-5-3h5-5-5-5--5-5-7-7-7-7-3-3-3-|

D#|---------------------------------------------------------------|
A#|---------------------------------------------------------------|
F#|--5/7--7-7-7--7-7--5-5-5---------------------------------------|
C#|----------- ---------------------------------------------------|
G#|--3/5--5-5-5--5-5--3-3-3--5-5-5-3h5-5-5-5--5-5-7-7-7-7-3-3-3-0-|
C#|--------------------------5-5-5-3h5-5-5-5--5-5-7-7-7-7-3-3-3-0-|


----------------------------------------------------------------------------
Guitar2:
 
D#|--------------------------------------------------------------------------|
A#|--------------------------------------------------------------------------|
F#|--5/7--7-7-7--7-7--9-9-9-9/10-10-10---------------------------------------|
C#|----------- --------------------------------------------------------------|
G#|--3/5--5-5-5--5-5--7-7-7-7/-8--8--8--5-5-5-3h5-5-5-5--5-5-7-7-7-7-3-3-3---|
C#|-------------------------------------5-5-5-3h5-5-5-5--5-5-7-7-7-7-3-3-3---|

D#|--------------------------------------------------------------------------|
A#|--------------------------------------------------------------------------|
F#|--5/7--7-7-7--7-7--9-9-9-9/10-10-10-10/12-12-12-12-14-14-14-14-10-10-10-7-|
C#|----------- --------------------------------------------------------------|
G#|--3/5--5-5-5--5-5--7-7-7-7/-8--8--8--8/10-10-10-10-12-12-12-12--8--8--8-5-|
C#|--------------------------------------------------------------------------|
Добавлено: 07.06.2013
Другие материалы по этой песне:
  • Аккорды и текст

Страница создана 07.06.2013
http://primanota.ru/shinedown/falling-fearless-chords.htm
Привет, Гость.
Предлагаем пройти революционный курс по гитаре.
Подарок от PrimaNota.Ru, забирай!