PrimaNota.ru - самый крупный в мире бесплатный архив песенных текстов, аккордов, табулатур и нот


Shinedown - Leave A Whisper - таба, видео

Регистрация Запомнить меня
Войти через:  Facebook Google Twitter Vk Yandex Mail.ru

Shinedown - Leave A Whisper - таба, видео

Печатать
Просмотров: 160
Уроки эстрадного вокала в Санкт-Петербурге
============================================================================
Shinedown - Leave A Whisper
============================================================================
1. Fly from the Inside
2. Left Out
3. Lost in the Crowd
4. No More Love
5. Better Version
6. Burning Bright
7. In Memory
8. All I Ever Wanted 
9. Stranger Inside
10. Lacerated
11. Crying Out
12. 45
-The Sanford Sessions-
13. Simple Man
14. Burning Bright
15. 45 ( Acoustic )
============================================================================
Label: Atlantic Records
Year: 2004
============================================================================
1. Fly from the Inside
============================================================================

Drop-D
 
Intro: 4x
E--------------------------------------------------------|
B--------------------------------------------------------|
G----11-11-11-/-12---12---12---12-/--14-----10-10-9-9----|
D-----x--x--x-/--x----x----x----x-/---x------8--8-8-8-10-|
A-----9--9--9-/-10---10---10---10-/--12------8--8-8-8--8-|
D--------------------------------------------8--8-8-8--8-|


Riff (Distorted): 4x
E-------------------------------------|
B-------------------------------------|
G-------------------------------------|
D-----0-0-8-7-3-0-3h5-0-0-8-7-3-0-3-3-|
A-----0-0-8-7-3-0-3h5-0-0-8-7-3-0-3-3-|
D-----0-0-8-7-3-0-3h5-0-0-8-7-3-0-3-3-|


Verse (Clean) 3X
figure out the struming
e---------------------|
B---------------------|
G-4-4-4-4-4-5-5-5-5-5-|
D-2-2-2-2-2-3-3-3-3-3-|
A-2-2-2-2-2-3-3-3-3-3-|
D-2-2-2-2-2-3-3-3-3-3-|
repeat this ^ 2x on the third time play this ____
						 |
e---------------------------------------------  ---|
B---------------------------------------------  ---|
G-4-4-4-4-4-5-5-5-5-5-7-7-7-7-7-10-10-10-10---  ---|
D-2-2-2-2-2-3-3-3-3-3-5-5-5-5-5--8--8--8--8--- <---|
A-2-2-2-2-2-3-3-3-3-3-5-5-5-5-5--8--8--8--8--------|
D-2-2-2-2-2-3-3-3-3-3-5-5-5-5-5--8--8--8--8--------|


Pre-Chorus (Distorted)
E-----------------------------------------------------------|
B-----------------------------------------------------------|
G-----------------------------------------------------------|
D---5-5-5-5-5-5-5-5-8-8-8-8-8-8-8-8-5-5-5-5-5-5-5-5-8-8-8-8-|
A---5-5-5-5-5-5-5-5-8-8-8-8-8-8-8-8-5-5-5-5-5-5-5-5-8-8-8-8-|
D---5-5-5-5-5-5-5-5-8-8-8-8-8-8-8-8-5-5-5-5-5-5-5-5-8-8-8-8-|


Chorus (Ditorted) 2x
------------------------------------------------------------------|
-----------------------10-10-9-9------5-555-555-55-5-555-555-555--|
-4--4--4-4/5--5-5-5/7--8--8--8-8-10---3-333-333-33-5-555-555-555--|
-0--0--0-0-0--0-0-0-0--8--8--8-8-8----3-333-333-33-3-333-333-333--|
-0--0--0-0-0--0-0-0-0--8--8--8-8-8----3-333-333-33----------------|


Riff (Distorted): 2x
E-------------------------------------|
B-------------------------------------|
G-------------------------------------|
D-----0-0-8-7-3-0-3h5-0-0-8-7-3-0-3-3-|
A-----0-0-8-7-3-0-3h5-0-0-8-7-3-0-3-3-|
D-----0-0-8-7-3-0-3h5-0-0-8-7-3-0-3-3-|

Verse (Clean) 4X
figure out the struming
e---------------------|
B---------------------|
G-4-4-4-4-4-5-5-5-5-5-|
D-2-2-2-2-2-3-3-3-3-3-|
A-2-2-2-2-2-3-3-3-3-3-|
D-2-2-2-2-2-3-3-3-3-3-|
repeat this ^ 3x on the third time play this ____
						 |
e---------------------------------------------  ---|
B---------------------------------------------  ---|
G-4-4-4-4-4-5-5-5-5-5-7-7-7-7-7-10-10-10-10---  ---|
D-2-2-2-2-2-3-3-3-3-3-5-5-5-5-5--8--8--8--8--- <---|
A-2-2-2-2-2-3-3-3-3-3-5-5-5-5-5--8--8--8--8--------|
D-2-2-2-2-2-3-3-3-3-3-5-5-5-5-5--8--8--8--8--------|


Pre-Chorus (Distorted)1x
E-----------------------------------------------------------|
B-----------------------------------------------------------|
G-----------------------------------------------------------|
D---5-5-5-5-5-5-5-5-8-8-8-8-8-8-8-8-5-5-5-5-5-5-5-5-8-8-8-8-|
A---5-5-5-5-5-5-5-5-8-8-8-8-8-8-8-8-5-5-5-5-5-5-5-5-8-8-8-8-|
D---5-5-5-5-5-5-5-5-8-8-8-8-8-8-8-8-5-5-5-5-5-5-5-5-8-8-8-8-|


Chorus (Ditorted) 2x
------------------------------------------------------------------|
-----------------------10-10-9-9------5-555-555-55-5-555-555-555--|
-4--4--4-4/5--5-5-5/7--8--8--8-8-10---3-333-333-33-5-555-555-555--|
-0--0--0-0-0--0-0-0-0--8--8--8-8-8----3-333-333-33-3-333-333-333--|
-0--0--0-0-0--0-0-0-0--8--8--8-8-8----3-333-333-33----------------|


Bridge (Distorted)
E----------------------------------|
B----------------------------------|
G----------------------------------|
D---0-0-15-15-0-0-15-15-0-15-0-15--|
A---0-0-15-15-0-0-15-15-0-15-0-15--|
D---0-0-15-15-0-0-15-15-0-15-0-15--|

E----------------------------|
B----------------------------|
G----------------------------|
D---0-0-15-15-0-0-15-15-0-15-|
A---0-0-15-15-0-0-15-15-0-15-|
D---0-0-15-15-0-0-15-15-0-15-|

E----------------------------------|
B----------------------------------|
G----------------------------------|
D---0-0-15-15-0-0-15-15-0-15-0-15--|
A---0-0-15-15-0-0-15-15-0-15-0-15--|
D---0-0-15-15-0-0-15-15-0-15-0-15--|

E------------------------------------------|
B------------------------------------------|
G------------------------------------------|
D---0-0-15-15-0-0-15-15-0-3-6--6-5-3-0-----|
A---0-0-15-15-0-0-15-15-0-3-6--6-5-3-0-----|
D---0-0-15-15-0-0-15-15-0-3-6--6-5-3-0-----|

E----------------------------------|
B----------------------------------|
G----------------------------------|
D---0-0-15-15-0-0-15-15-0-15-0-15--|
A---0-0-15-15-0-0-15-15-0-15-0-15--|
D---0-0-15-15-0-0-15-15-0-15-0-15--|

E-------------------------------|
B-------------------------------|
G-------------------------------|
D---0-0-15-15-0-0-15-15-0-0-0-0-|
A---0-0-15-15-0-0-15-15-0-0-0-0-|
D---0-0-15-15-0-0-15-15-0-0-0-0-|

E----------------------------------|
B----------------------------------|
G----------------------------------|
D---0-0-15-15-0-0-15-15-0-15-0-15--|
A---0-0-15-15-0-0-15-15-0-15-0-15--|
D---0-0-15-15-0-0-15-15-0-15-0-15--|

E-----------------------|
B-----------------------|
G-----------------------|
D---0-0-15-15-0-0-15-15-|
A---0-0-15-15-0-0-15-15-|
D---0-0-15-15-0-0-15-15-|


Intro: 2x
E--------------------------------------------------------|
B--------------------------------------------------------|
G----11-11-11-/-12---12---12---12-/--14-----10-10-9-9----|
D-----x--x--x-/--x----x----x----x-/---x------8--8-8-8-10-|
A-----9--9--9-/-10---10---10---10-/--12------8--8-8-8--8-|
D--------------------------------------------8--8-8-8--8-|


Chorus (Ditorted) 4x
------------------------------------------------------------------|
-----------------------10-10-9-9------5-555-555-55-5-555-555-555--|
-4--4--4-4/5--5-5-5/7--8--8--8-8-10---3-333-333-33-5-555-555-555--|
-0--0--0-0-0--0-0-0-0--8--8--8-8-8----3-333-333-33-3-333-333-333--|
-0--0--0-0-0--0-0-0-0--8--8--8-8-8----3-333-333-33----------------|


Riff (Distorted): 2x
E-------------------------------------|
B-------------------------------------|
G-------------------------------------|
D-----0-0-8-7-3-0-3h5-0-0-8-7-3-0-3-3-|
A-----0-0-8-7-3-0-3h5-0-0-8-7-3-0-3-3-|
D-----0-0-8-7-3-0-3h5-0-0-8-7-3-0-3-3-|

E-----------------------------------------|
B-----------------------------------------|
G-----------------------------------------|
D-----0-0-8-7-3-0-3h5-0-0-8-7-3-0-3-3-3-3-|
A-----0-0-8-7-3-0-3h5-0-0-8-7-3-0-3-3-3-3-|
D-----0-0-8-7-3-0-3h5-0-0-8-7-3-0-3-3-3-3-|

Tabbed By Ultimate_Crow - nethawk_2003@yahoo.com

============================================================================
2. Left Out
============================================================================

Drop-D

intro (with delay effect)Distorted
|-----------|
|--10h11p10-|
|-----------|
|-----------|
|-----------|
|-----------|

Riffer Distorted
|-------------------------|
|-------------------------|
|-/5----------------------|
|-/5--3p5h3-3--3--3--3h5--|
|-/3--3p5h3-3--3--3--3h5--|
|-----3p5h3-3--3--3--3h5--|

|---------------------------|
|---------------------------|
|-/5------------------------|
|-/5--3p5h3-3--3--3--3h5p3--|
|-/3--3p5h3-3--3--3--3h5p3--|
|-----3p5h3-3--3--3--3h5p3--|

Bridge
|--------------------------------------------------------------------------|
|--------------------------------------------------------------------------|
|-5/7-7-7-7----------------------------------------------------------------|
|------------5x5x5-3h5-----------------------------------------------------|
|-3/5-5-5-5--5x5x5-3h5-----------------------------------------------------|
|------------5x5x5-3h5-----------------------------------------------------|


|-----------------------------------------------------------------------|
|-----------------------------------------------------------------------|
|-5/7-7-7-7--9-9-9------------------------------------------------------|
|-----------------------------------------------------------------------|
|-3/5-5-5-5--7-7-7------------------------------------------------------|
|-----------------------------------------------------------------------|

============================================================================
3. Lost in the Crowd
============================================================================

Tuning:DADGBE
     
intro    alternate between thses two chords
e|-0---0-------------------------------------------------------------------|
B|-3---3-------------------------------------------------------------------|
G|-2---0--------------pre chorus build----3-----5--------------------------|
D|-0---0----------------------------------1///--3-/////--------------------|
A|-0---3----------------------------------1-----3--------------------------|
D|-------------------------------------------------------------------------|


  distortion     chorus
e|-------------------------------------------------------------------------|
B|-3-----------------------------------------------------------------------|
G|-2----5------3-------h---pm----------------------------------------------|
D|-0----5////--3////--0--3-33---5------------------------------------------|
A|-0----3------1------0--3-33---5------------------------------------------|
D|-0------------------0--3-33---5--0-320-----------------------------------|


 second verse start by picking chords
e|-0-----------------------------------------------------------------------|
B|-3---3-------------------------------------------------------------------|
G|-2---0--------------------------------------------------3----5-----------|
D|-0---0--------then play same chords as first verse------3////5/////------|
A|-0---3--------------------------------------------------1----3-----------|
D|-------------------------------------------------------------------------|

 second chorus same as first
e|-------------------------------------------------------------------------|
B|-------------------------------------------------------------------------|
G|-------------------------------------------------------------------------|
D|-------------------------------------------------------------------------|
A|-------------------------------------------------------------------------|
D|-------------------------------------------------------------------------|

interlude

e|-------------------------------------------------------------------------|
B|-------------------------------------------------------------------------|
G|-------------------------------------------------------------------------|
D|-----------------32 0----------------------------------------------------|
A|-----5------------------------repeat-------------------------------------|
d|-000-------00 0----------------------------------------------------------|


rythem under solo
e|-------------------------------------------------------------------------|
B|-------------------------------------------------------------------------|
G|-3-----5------3------5--3--------pm--------------------------------------|
D|-3////-5/////-3////--5//3------3-33--5-----------------------------------|
A|-1-----3------1------3--1------3-33--5-----------------------------------|
D|-----------------------------0-3-33--5---3 320---------------------------|


then back to chorus
e|-------------------------------------------------------------------------|
B|-------------------------------------------------------------------------|
G|-------------------------------------------------------------------------|
D|-------------------------------------------------------------------------|
A|-------------------------------------------------------------------------|
D|-------------------------------------------------------------------------|

e|-------------------------------------------------------------------------|
B|-------------------------------------------------------------------------|
G|-------------------------------------------------------------------------|
D|-------------------------------------------------------------------------|
A|-------------------------------------------------------------------------|
E|-------------------------------------------------------------------------|
  if u have questions or comments feel free to write!!!

| /  slide up
| \  slide down
| h  hammer-on
| p  pull-off
| ~  vibrato
| +  harmonic
| x  Mute note

============================================================================
4. No More Love
============================================================================

Tuning: Drop Bb (Bb F Bb Eb G C)

intro
 C|--------------------------------------------------------------||
 G|--------------------------------------------------------------||
Eb|--------------------------------------------------------------||
Bb|----------------------------0-0-8-8-8--0-0-8-8-8--------------||
 F|-0--7-7-5--3-3-3/5-5--------0-0-8-8-8--0-0-8-8-8--------------||
Bb|-0--0-0-0--0-0-0-0-0--------0-0-8-8-8--0-0-8-8-8--------------||

verse
 C|--------------------------------------------------------||
 G|--------------------------------------------------------||
Eb|--------------------------------------------------------||
Bb|-5--5-5-8--8-8-5----------------------------------------||
 F|-5--5-5-8--8-8-5----repeat------------------------------||
Bb|-5--5-5-8--8-8-5----------------------------------------||

chorus
 C|--------------------------------------------------------||
 G|--------------------------------------------------------||
Eb|--------------------------------------------------------||
Bb|-0-0-8-8-8--0-0-8-8-8--0-0-8-5-5-5/7-7-7----------------||
 F|-0-0-8-8-8--0-0-8-8-8--0-0-8-5-5-5/7-7-7----------------||
Bb|-0-0-8-8-8--0-0-8-8-8--0-0-8-5-5-5/7-7-7----------------||

bridge(acoustic)
 C|-5-5--0-0-0-0-0--5-5--6-6----------------------------------------------||
 G|-5-5--3-3-3-3-3--5-5--6-6----------------------------------------------||
Eb|-2-2--2-2-2-2-2--2-2--3-3----------------------------------------------||
Bb|------0-0-0-0-0----------------------------------------------------------
 F|-----------------------------------------------------------------------||
Bb|-----------------------------------------------------------------------||

outro
 C|--------------------------------------------------------||
 G|--------------------------------------------------------||
Eb|--------------------------------------------------------||
Bb|-0-3-5-3-3-3/5-5-5--------------------------------------||
 F|-0-3-5-3-3-3/5-5-5--------------------------------------||
Bb|-0-3-5-3-3-3/5-5-5--------------------------------------||

============================================================================
5. Better Version
============================================================================

Tuning:	dadgbe
 
 I only tabbed the chords not the number of times they are played
intro
e|-------------------------------------------------------------------------|
B|-------------------------------------------------------------------------|
G|-------------------------------------------------------------------------|
D|---4-2--4--------4 2 4~ bend   then repeat-------------------------------|
A|-2------------2----------------------------------------------------------|
D|-------------------------------------------------------------------------|

distorted -THE INTRO RIFF IS THE SAME AS THE CHORUS--

e|---------------------/------------|
B|---------------------/------------|
G|-4---7---------------/------------|
D|-4---7----2----5-----/---REAPEAT--|
A|-2---5----2----5-----/------------|
D|----------2----5-----/------------|


VERSE CLEAN  LYRICS ( EXCUSE THE MESS)      THIS IS THE QUIET OVERDUB ON THE VERSE, KINDA CLOSE
e|----------2---5----                      -5----5-------------------|
G|----4--7--4---7----                  3--5 -5----5------------------|
D ----4--7--2---5                            -7----7----AND REAPEAT--|
A|----2--5--2---5--                           -----------------------|
D|----------2-- 5---                           ----------------------|


PRE CHORUS DISTORTED - LYRICS( I AM NOT PERFECT, I DONT CLAIM TO BE)
e|-------------------------------------------------------------------------|
B|-------------------------------------------------------------------------|
G|----------------------------- PM-----------------------------------------|
D|-4----7----0----4---7-----0---0--2----THEN REAPEAT ----------------------|
A|-4----7----0----4---7-----0---0--2---------------------------------------|
D|-4----7----0----4---7-----0---0--2---------------------------------------|

INTRO RIFF/CHORUS      (HOW BOUT A BETTER VERSION OF, THE WAY THAT i AM)

e|---------------------/---------------------------------------------------|
B|---------------------/---------------------------------------------------|
G|-4---7---------------/---------------------------------------------------|
D|-4---7----2----5-----/---------------------------------------------------|
A|-2---5----2----5-----/---------------------------------------------------|
D|----------2----5-----/---------------------------------------------------|


VERSE CLEAN                         THIS IS THE QUIET OVERDUB ON THE VERSE, KINDA CLOSE
e|----------2---5----          -5----5-------------------|
G|----4--7--4---7----      3--5 -5----5------------------|
D ----4--7--2---5                -7----7----AND REAPEAT--|
A|----2--5--2---5--            --------------------------|
D|----------2-- 5---           --------------------------|
e|


PRE CHORUS DISTORTED - LYRICS( I AM NOT PERFECT, I DONT CLAIM TO BE)
e|-------------------------------------------------------------------------|
B|-------------------------------------------------------------------------|
G|----------------------------- PM-----------------------------------------|
D|-4----7----0----4---7-----0---0-2----THEN REAPEAT -----------------------|
A|-4----7----0----4---7-----0---0-2----------------------------------------|
D|-4----7----0----4---7-----0---0-2----------------------------------------|


INTRO RIFF/CHORUS      (HOW BOUT A BETTER VERSION OF, THE WAY THAT i AM)
e|---------------------/---------------------------------------------------|
B|---------------------/---------------------------------------------------|
G|-4---7---------------/---------------------------------------------------|
D|-4---7----2----5-----/---------------------------------------------------|
A|-2---5----2----5-----/---------------------------------------------------|
D|----------2----5-----/---------------------------------------------------|

INTERLUDE           (SHOW ME MY BATTLE SIGHN, UNTIL I REALIGHN)
E------------------------------------------------------------------|
B|-----------------------------------------------------------------|
G|---H------------H--------PM-------H----------H---PM--------------|
D|-7-9--4------7-9--2-2--0-4    7 --9--4----7-9--2-2--0------------|
A|-7-9--4------7-9--2-2--0-4----7---9--4----7-9--2-2--0-  REAPEAT--|
D--7-9--4------7-9--2-2--0-4----7---9--4----7-9--2-2--0------------|


INTRO PART           ( HOW BOUT A BETTER VERSION OF ME,HOW BOUT A BETTER VERSION OF ME)
e|-------------------------------------------------------------------------|
B|-------------------------------------------------------------------------|
G|-------------------------------------------------------------------------|
D|----4--2--4-----4---2--4~------------------------------------------------|
A|-2------------2----------------------------------------------------------|
E|-------------------------------------------------------------------------|

INTRO RIFF/CHORUS      (HOW BOUT A BETTER VERSION OF, THE WAY THAT i AM)

e|---------------------/---------------------------------------------------|
B|---------------------/---------------------------------------------------|
G|-4---7---------------/---------------------------------------------------|
D|-4---7----2----5-----/---------------------------------------------------|
A|-2---5----2----5-----/---------------------------------------------------|
D|----------2----5-----/---------------------------------------------------|


THATS THE WHOLE SONG, IT LOOKS COMPLICATED BUT I TABBED IT OUT TO GO EXACTLY
LIKE THE SONG IS HEARD, JUST READ IT FROM TOP TO BOTTOM AND PLAY ALONG.
iF YOU HAVE QUESTIONS OR COMENTS PLEASE WRITE!!
ENJOY


| /  slide up
| \  slide down
| h  hammer-on
| p  pull-off
| ~  vibrato
| +  harmonic
| x  Mute note

============================================================================
6. Burning Bright
============================================================================

Tuning: Drop D

Verse:
   I feel like . . .          Now and then . . .
e|-------------------------------------------------------------------------|
B|-------------------------------------------------------------------------|
G|-11--11br-9---7--------------5-------------------------------------------|
D|-11--11br-9---7--------------5------3h5--33h5--33h5--55--3---------------|
A|--9---9---7---5--------------3------3h5--33h5--33h5--55--3---------------|
D|--9---9---7---5--------------3------3h5--33h5--33h5--55--3---------------|

2nd guitar play this over the verse riff
e|-------------------------------------------------------------------------|
B|-------------------------------------------------------------------------|
G|---11h12-11--------11h12-11---7/9-4--------------------------------------|
D|-------------------------------------------------------------------------|
A|-------------------------------------------------------------------------|
D|-------------------------------------------------------------------------|


Chorus:
e|-------------------------------------------------------------------------|
B|-------------------------------------------------------------------------|
G|--4-----7-----2-----9-----4-----7-----2----------------------------------|
D|--4-----7-----2-----9-----4-----7-----2-----8----------------------------|
A|--2-----5-----0-----7-----2-----5-----0-----9----------------------------|
D|--2-----5-----0-----7-----2-----5-----0-----8----------------------------|

============================================================================
7. In Memory
============================================================================

Tuning: Drop C (CGCFAD)

Intro

D|-------------------------------------------------------------------------|
A|-------------------------------------------------------------------------|
F|---------7----------------------------7----------------------------------|
C|-0-3---0-7---0-5---0-8--------0-3---0-7---0-5---0-8h10p8-----------------|
G|-0-3---0-5---0-5---0-8--------0-3---0-5---0-5---0-8h10p8-----------------|
C|-0-3---0-----0-5---0-8--------0-3---0-----0-5---0-8h10p8-----------------|

Verse
    
D|-------------|--------------|-------------|------------------------------|
A|-3-----------|-3------------|-3-----------|------------------------------|
F|-2---9---10--|-2---12---10--|-2---9---10--|-9---10---12---7--------------|
C|-0---7----8--|-0---10----8--|-0---7----8--|-7----8---10---5--------------|
G|-0---7----8--|-0---10----8--|-0---7----8--|-7----8---10---5--------------|
C|-0---7----8--|-0---10----8--|-0---7----8--|-7----8---10---5--------------|

Chorus

D|------------------------|
A|-------3----------------|
F|-10----2----12----10----|
C|--8----0----10-----8----|
G|--8----0----10-----8----|
C|--8----0----10-----8----|

Bridge
                     Harmonic...........
D|-------------------12-12-12-12-12-12-12-----|
A|--------------------------------------------|
F|--------------------------------------------|
C|-0-0--------0-0-----------------------------|
G|-0-0--------0-0-----------------------------|
C|-0-0--0-8/7-0-0-----------------------------|

   
End song on...
D|------|
A|------|
F|-10---|
C|--8---|
G|--8---|
C|--8---|

Intro  x2
Verse
Chorus x2
Intro  x2
Verse
Chorus x2
Intro  x2
Bridge x8
Chorus x2
Intro  x4 

Listen to the song for when to use clean channel and distortion.  Enjoy.

| /  slide up
| \  slide down
| h  hammer-on
| p  pull-off
| ~  vibrato
| +  harmonic
| x  Mute note

============================================================================
8. All I Ever Wanted
============================================================================

Tuning: Drop D (D A D G B E)

intro/verse
E|--------------------------------3^--0h1p0h1p0---------------------------||
B|----------------------------------------------2-2h3---------------------||
G|------------------------------------------------------------------------||
D|-----2---3-2-----2-----2-----2------------------------------------------||
A|---0---0-----0-----3-----3----------------------------------------------||
D|-0-------------3-----3-----3--------------------------------------------||

chorus
E|--------------------------------------------------------||
B|--------------------------------------------------------||
G|--------------7-7-7-7-7-7-7-7-7-7-7/4-4-4-4-4/5-5-5-5-5-||
D|-3-3-33333--0-x-x-x-x-x-x-x-x-x-x-x-x-x-x-x-x-x-x-x-x-x-||
A|-3-3-33333--0-5-5-5-5-5-5-5-5-5-5-5/2-2-2-2-2/3-3-3-3-3-||
D|-3-3-33333--0-------------------------------------------||
       *****
E|--------------------------------------------------------||
B|--------------------------------------------------------||
G|---7-7-7-7-7-7-7-7-7-7-7/12-12/7-7-7--------------------||
D|-0-x-x-x-x-x-x-x-x-x-x-x--x--x-x-x-x-00-0-3-3-3-3-3-3---||
A|-0-5-5-5-5-5-5-5-5-5-5-5/10-10/5-5-5-00-0-3-3-3-3-3-3---||
D|-0-----------------------------------00-0-3-3-3-3-3-3---||
                                       **
bridge/solo(tremelo picking)
E|------------------------------------------------------------------------||
B|------------3333333333333333--88888888888888-10101010--11111111111111111||
G|------------------------------------------------------------------------||
D|-5-3-2-3-2--0-----------------------------------------------------------||
A|-5-3-2-3-2--0-----------------------------------------------------------||
D|-5-3-2-3-2--0-----------------------------------------------------------||

E|------------------------------------------------------------------------||
B|-13131313131313131313131313131313--15151515151515151515-19p151515151515-||
G|------------------------------------------------------------------------||
D|------------------------------------------------------------------------||
A|------------------------------------------------------------------------||
D|------------------------------------------------------------------------||

E|------------------------------------------------------------------------||
B|-19p1515151515151515-19p1515151515151515--------------------------------||
G|------------------------------------------------------------------------||
D|------------------------------------------------------------------------||
A|------------------------------------------------------------------------||
D|------------------------------------------------------------------------||

rythm during solo
E|------------------------------------------------------------------------||
B|------------------------------------------------------------------------||
G|------------------------------------------------------------------------||
D|-0---5-5-5-5-5--8-8/3-3-3-3--5-3-2-3-2--5-5-5-5-5-8-8-8-8-8/10-10-repeat||
A|-0---5-5-5-5-5--8-8/3-3-3-3--5-3-2-3-2--5-5-5-5-5-8-8-8-8-8/10-10-------||
D|-0---5-5-5-5-5--8-8/3-3-3-3--5-3-2-3-2--5-5-5-5-5-8-8-8-8-8/10-10-------|

============================================================================
9. Stranger Inside
============================================================================

Tuning:CGCFAD

intro
D|-------------------------------------------------------------------------|
A|-------------------------------------------------------------------------|
F|-------------------------------------------------------------------------|
C|-------------------------------------------------------------------------|
G|-5555555555555555555-------drums enter-----------------------------------|
C|-------------------------------------------------------------------------|

MAIN RIFF
D   -----------------------------------------------------------------|
A   -----------------------------------------------------------------|
F   ------h-----h------------h------H---------H------H---------------|
C   0----2-3---5-7-----0---2--3----7-8----0--2-3---5--7-----H--------|PLAY THRU TWICE
G   0----2-3---5-7-----0---2--3----7-8----0--2-3---5--7----3-555553--|
c   0----2-3---5-7-----0---2--3----7-8----0--2-3---5--7------------0-|


VERSE    ''LET CHORDS RING OUT''
D|X----X-------------------------------------------------------------------|
A|3----3-------------------------------------------------------------------|
F|2----3-------------------------------------------------------------------|
C|0----0----THEN REPEAT----------------------------------------------------|
G|0----0-------------------------------------------------------------------|
C|0----0-------------------------------------------------------------------|

BUILD UP BEFORE CHORUS.........(so take it while u can,.....
D|-------------------------------------------------------------------------|
A|-------------------------------------------------------------------------|
F|-7-----------------------------------------------------------------------|
C|-x-(12times)--8-----------5-----------1-1-1-1--1-3-5---------------------|
G|-5------------8-(12times)-5-(12times)-1-1-1-1--1-3-5--  PLAY THRU TWICE--|
C|--------------8-----------5-----------1-1-1-1--1-3-5---------------------|

chorus    (HAVE YOU EVER FELT LOST INSIDE....)
D|-----------------------------------|
A|-----------------------------------|
F|-7---------------------------------|
C|-7-//////--8-------5-----8------3--|
G|-5---------8-/////-5-///-8-////-3--|
C|-----------8-------5-----8------3--|

MAIN RIFF TWICE AGIN.......
THEN SECOND VERSE.........
CHORUS BUILD UP......
CHORUS...........


INTERLUDE
D|-------------------------------------------------------------------------|
A|-------------------------------------------------------------------------|
F|-------------------------------------------------------------------------|
C|---------------------0-8------------------------H----3-------------------|
G|---------------------0-8-----------------------3--5----------------------|
C|-0-0-0-0---0-0-0-0---0-8----0-0-0-0---0-0-0-0----------------------------|

D--------------------------------------------------------------------------|
A|-------------------------------------------------------------------------|
F|------------------------------------------------------H------------------|
C|---------------------0-8------------------------H----3-5-----------------|
G|---------------------0-8-----------------------3--5----------------------|
C|-0-0-0-0---0-0-0-0---0-8----0-0-0-0---0-0-0-0----------------------------|


D|-------------------------------------------------------------------------|
A|-------------------------------------------------------------------------|
F|---------------------------------------------------------------H---------|
C|-0-0-0-0-12-12-0-12---H----10-----0-0-0-0-12-12-0-12----H---10--12-PLAY 2x
G|-0-0-0-0-12-12-0-12-10--12--------0-0-0-0-12-12-0-12--10-12--------------|
C|-0-0-0-0-12-12-0-12---------------0-0-0-0-12-12-0-12---------------------|

CHORUS......

MAIN RIFF.......


AND THATS ALL!!!!

| /  slide up
| \  slide down
| h  hammer-on
| p  pull-off
| ~  vibrato
| +  harmonic
| x  Mute note 

============================================================================
10. Lacerated
============================================================================

Tuning: Drop D (D A D G B E)

what a fun song

intro/verse
E|------------------------------------------------||
B|------------------------------------------------||
G|------------------------------------------------||
D|-----4-----4-----5-----5-----5------------------||
A|---5-----5-----6-----6-----6---repeat-----------||
D|-0-----0-----7-----7-----7----------------------||

prechorus
E|--------------------------------------------------------||
B|--------------------------------------------------------||
G|--------------------------------------------------------||
D|-0-00-0-00-1-11-1-11-1---repeat-------------------------||
A|-0-00-0-00-1-11-1-11-1----------------------------------||
D|-0-00-0-00-1-11-1-11-1----------------------------------||
     **   **   **   **
chorus
E|--------------------------------------------------------||
B|--------------------------------------------------------||
G|--------------------------------------------------------||
D|-3-x-3-3-5-3-0-1-x-1-1-3-1-0--0-0-00-1-11---------------||
A|-3-x-3-3-5-3-0-1-x-1-1-3-1-0--0-0-00-1-11---------------||
D|-3-x-3-3-5-3-0-1-x-1-1-3-1-0--0-0-00-1-11---------------||

bridge
E|--------------------------------------------------------||
B|--------------------------------------------------------||
G|--------------------------------------------------------||
D|-0-3-5-5-3-0-3-0-0-0-0----------------------------------||
A|-0-3-5-5-3-0-3-0-0-0-0----------------------------------||
D|-0-3-5-5-3-0-3-0-0-0-0----------------------------------||

============================================================================
11. Crying Out
============================================================================

Tuning: Drop D (D A D G B E)

E|------------------------------------------------------------------------||
B|------------------------------------------------------------------------||
G|-6666666666666777777777777-6666666666666777777777777--------------------||
D|-4444444444444444444444444-4444444444444444444444444--------------------||
A|------------------------------------------------------------------------||
D|------------------------------------------------------------------------||

  riff A
E|------------------------------------------------------------------------||
B|------------------------------------------------------------------------||
G|------------------------------------------------------------------------||
D|-2h4-4-4-2h4-4-4--2h4-4--2h4-4-4-2h4-4-4--2h4-4-------------------------||
A|-2h4-4-4-2h4-4-4--2h4-4--2h4-4-4-2h4-4-4--2h4-4-------------------------||
D|-2h4-4-4-2h4-4-4--2h4-4--2h4-4-4-2h4-4-4--2h4-4-------------------------||


  riff A (background")" tppabs="http://tabs.ultimate-guitar.com/s/shinedown/)"
E|-----------------------------------17-------------------||
B|-----------------------------13/14----13/14-------------||
G|---6-6-6--7-7-7------leads>-----------------------------||
D|--4-4-4--4-4-4------------------------------------------||
A|--------------------------------------------------------||
D|--------------------------------------------------------||

  verse riff
E|------------------------------------------------------------------------||
B|------------------------------------------------------------------------||
G|------------------------------------------------------------------------||
D|-4p2-2-2--4h2-2-2--4h2--77-22-22----------------------------------------||
A|-4p2-2-2--4h2-2-2--4h2--77-22-22--repeat--------------------------------||
D|-4p2-2-2--4h2-2-2--4h2--77-22-22----------------------------------------||

  chorus riff
E|------------------------------------------------------------------------||
B|------------------------------------------------------------------------||
G|------------------------------------------------------------------------||
D|-0-0-0--0-0-0--2-2-4-4x4------------------------------------------------||
A|-0-0-0--0-0-0--2-2-4-4x4--repeat----------------------------------------||
D|-0-0-0--0-0-0--2-2-4-4x4------------------------------------------------||

 bridge
E|-----------------0--------------------------------------||
B|-2---3---2---2--------repeat----------------------------||
G|---0---0---0---0---0------------------------------------||
D|--------------------------------------------------------||
A|--------------------------------------------------------||
D|--------------------------------------------------------||


E|--------------17--------------------------------------------------------||
B|--------13/14------------13/14------------------------------------------||
G|------------------------------------------------------------------------||
D|-2h4-44----------2h4-44-------------------------------------------------||
A|-2h4-44----------2h4-44-------------------------------------------------||
D|-2h4-44----------2h4-44-------------------------------------------------||

finish on riff A

============================================================================
12. 45
============================================================================

Standard Tuning

Intro:
e|-------------------------------------------
B|-----------------------------------3-------
G|-------0----2----0-----0----0----0---0-----
D|-----2----0----0-----2----2----2-------2---
A|-------------------3----3----3-------------
E|---0----2----3-----------------------------

Verse:
e|-----------------------------------------------------
B|---------------------------------------------3-------
G|-------0----2----0-0h2p0---------0----0----0---0-----
D|-----2----0----0---------4-0---2----2----2-------2---
A|-----------------------------3----3----3-------------
E|---0----2----3---------------------------------------

e|-----------------------------------------------
B|---------------------------------------3-------
G|-------0----2----0---0-----0----0----0---0-----
D|-----2----0----0---0-----2----2----2-------2---
A|-----------------------3----3----3-------------
E|---0----2----3---------------------------------

e|-----------------------------------------------------
B|---------------------------------------------3-------
G|-------0----2----0-0h2p0---------0----0----0---0-----
D|-----2----0----0---------4-0---2----2----2-------2---
A|-----------------------------3----3----3-------------
E|---0----2----3---------------------------------------

Prechorus:
e|---0---0---0---0---0---0---------------
B|---1---1---0---0---1---1---------------
G|---2---2---0---0---2---2---------------
D|---2---2---2---2---2---2---5---4---2---
A|---0---0---2---2---0---0---5---4---2---
E|-----------0---0-----------3---2---0---
                           PM.........

Chorus:
e|---------------------------------------
B|---------------------------------------
G|---------7---5---5-------------7---5---
D|-------2---7---5---5-------2---7---5---
A|-------2---5---3---3-------2---5---3---
E|---3-2-0---------------3-2-0-----------

Verse:
e|-------------------------------------------
B|-----------------------------------3-------
G|-------0----2----0-----0----0----0---0-----
D|-----2----0----0-----2----2----2-------2---
A|-------------------3----3----3-------------
E|---0----2----3-----------------------------

e|-----------------------------------------------------
B|---------------------------------------------3-------
G|-------0----2----0-0h2p0---------0----0----0---0-----
D|-----2----0----0---------4-0---2----2----2-------2---
A|-----------------------------3----3----3-------------
E|---0----2----3---------------------------------------

e|-----------------------------------------------
B|---------------------------------------3-------
G|-------0----2----0---0-----0----0----0---0-----
D|-----2----0----0---0-----2----2----2-------2---
A|-----------------------3----3----3-------------
E|---0----2----3---------------------------------

e|----------------------------------------------------
B|--------------------------------------------3-------
G|-------0----2----0-0h2p0--------0----0----0---0-----
D|-----2----0----0--------4-0---2----2----2-------2---
A|----------------------------3----3----3-------------
E|---0----2----3--------------------------------------

Prechorus:
e|---0---0---0---0---0---0---------------
B|---1---1---0---0---1---1---------------
G|---2---2---0---0---2---2---------------
D|---2---2---2---2---2---2---5---4---2---
A|---0---0---2---2---0---0---5---4---2---
E|-----------0---0-----------3---2---0---
                           PM.........

Chorus:
e|-------------------------------------------
B|-------------------------------------------
G|-----------7---5---5-----------7---5---5---
D|-------2---7---5---5-------2---7---5---5---
A|-------2---5---3---3-------2---5---3---3---
E|---3-2-0---------------3-2-0---------------

Bridge:
e|---------------------------------------------
B|---------------------------------------------
G|-----------5-------------5-----7-7-7---5-----
D|---5-5-5---5-2---5-5-5---5-2---7-7-7---5-2---
A|---5-5-5---3-2---5-5-5---3-2---5-5-5---3-2---
E|---3-3-3-----0---3-3-3-----0-------------0---

e|---------------------------------------------
B|---------------------------------------------
G|-----------------------0---------------------
D|-------2----0----0---2------2----0---5-5-5---
A|-----2----0----2---3------2----0-----5-5-5---
E|---0----2----3----------0----2-------3-3-3---

Chorus:
e|------------------------------------------
B|------------------------------------------
G|-----------7---5---5-----------7---5--5---
D|-------2---7---5---5-------2---7---5--5---
A|-------2---5---3---3-------2---5---3--3---
E|---3-2-0-------------------0--------------

e|--------------------------------------------------------
B|--------------------------------------------------------
G|----------------7--5--7--------------------7--5--7------
D|-------2--4--5--7--5--7--2--------2--4--5--7--5--7--7---
A|-------2--4--5--5--3--5--2--------2--4--5--5--3--5--7---
E|---3-2-0--2--3-----------0--2-3-2-0--2--3-----------5---

Outro:
e|--------------------------------------------------------
B|--------------------------------------------------------
G|----------------7--5--7--------------------7--5--7------
D|-------2--4--5--7--5--7--2--------2--4--5--7--5--7--7---
A|-------2--4--5--5--3--5--2--------2--4--5--5--3--5--7---
E|---3-2-0--2--3-----------0--2-3-2-0--2--3-----------5---

| /  slide up
| \  slide down
| h  hammer-on
| p  pull-off
| ~  vibrato
| +  harmonic
| x  Mute note

-------------------------------------Sanford Sessions*

============================================================================
13. Simple Man
============================================================================

intro
E---------------------------------------------------3----------|
B-----------1---------------------------1----1---------1-------|
G--------------0---0-------0--------------2----2---------------|
D--------2-------2-----------0---0----2-----2----2-------------|
A--0-2-3-----------------2-----2----0--------------------------|
E----------------------3---------------------------------------|
intro continued
E----------------------------------------------------------------|
B----------1-----------------------1-1-1-1-----------------------|
G------------0----0-------0--------2-2-2-2-----------------------|
D-------2-------2-----------0--0---2-2-2-2-----------------------|
A-0-2-3-----------------2-----2----------------------------------|
E---------------------3------------------------------------------|
verse Same as Intro pt 1
E-------------------------------------------------------------|
B-------------------------------------------------------------|
G-------------------------------------------------------------|
D-------------------------------------------------------------|
A-------------------------------------------------------------|
E-------------------------------------------------------------|
chorus
E---------------------------------------------------------------|
B---------------------1-1-1-1-----------------------------------|
G---------------------2-2-2-2-----------------------------------|
D--10-10-10--5-5-5-7--2-2-2-2-----------------------------------|
A--10-10-10--5-5-5-7--------------------------------------------|
E--8--8--8---3-3-3-5--------------------------------------------|

============================================================================
14. Burning Bright
============================================================================

Bm	A	G
Bm	A	G

Bm		      A          G
I feel like there is no need for conversation
Bm                  A            G
Some questions are better left without a reason
Bm                 A                      G
And I would rather reveal myself than my situation
F                        G
Now and then I consider, my hesitation

chorus

Em           G    
The more the light shines through me
D                     A
I pretend to close my eyes
Em                   G
The more the dark consumes me
D                Fm
I pretend I'm burning, burning bright

Bm                A                    G
I wonder if the things I did were just to be different
Bm               A                    G
To spare myself of the constant shame of my existence
Bm               A                    G
And I would surely redeem myself in my desperation
F                          G
Here and now I'll express, my situation

CHORUS (twice)

Bm                     A                       G
There's nothing ever wrong but nothing's ever right
Such a cruel contradiction
Bm                     A                    G
I know I cross the lines its not easy to define
I'm born to indecision
Bm                             A                       G
There's always something new some path I'm supposed to choose
With no particular rhyme or reason

CHORUS (twice)

Bm                   A            G
I feel like there is no need for, conversation

============================================================================
15. 45 ( Acoustic )
============================================================================

Standard Tuning

Intro:
e|-------------------------------------------
B|-----------------------------------3-------
G|-------0----2----0-----0----0----0---0-----
D|-----2----0----0-----2----2----2-------2---
A|-------------------3----3----3-------------
E|---0----2----3-----------------------------

Verse:
e|-----------------------------------------------------
B|---------------------------------------------3-------
G|-------0----2----0-0h2p0---------0----0----0---0-----
D|-----2----0----0---------4-0---2----2----2-------2---
A|-----------------------------3----3----3-------------
E|---0----2----3---------------------------------------

e|-----------------------------------------------
B|---------------------------------------3-------
G|-------0----2----0---0-----0----0----0---0-----
D|-----2----0----0---0-----2----2----2-------2---
A|-----------------------3----3----3-------------
E|---0----2----3---------------------------------

e|-----------------------------------------------------
B|---------------------------------------------3-------
G|-------0----2----0-0h2p0---------0----0----0---0-----
D|-----2----0----0---------4-0---2----2----2-------2---
A|-----------------------------3----3----3-------------
E|---0----2----3---------------------------------------

Prechorus:
e|---0---0---0---0---0---0---------------
B|---1---1---0---0---1---1---------------
G|---2---2---0---0---2---2---------------
D|---2---2---2---2---2---2---5---4---2---
A|---0---0---2---2---0---0---5---4---2---
E|-----------0---0-----------3---2---0---
                           PM.........

Chorus:
e|---------------------------------------
B|---------------------------------------
G|---------7---5---5-------------7---5---
D|-------2---7---5---5-------2---7---5---
A|-------2---5---3---3-------2---5---3---
E|---3-2-0---------------3-2-0-----------

Verse:
e|-------------------------------------------
B|-----------------------------------3-------
G|-------0----2----0-----0----0----0---0-----
D|-----2----0----0-----2----2----2-------2---
A|-------------------3----3----3-------------
E|---0----2----3-----------------------------

e|-----------------------------------------------------
B|---------------------------------------------3-------
G|-------0----2----0-0h2p0---------0----0----0---0-----
D|-----2----0----0---------4-0---2----2----2-------2---
A|-----------------------------3----3----3-------------
E|---0----2----3---------------------------------------

e|-----------------------------------------------
B|---------------------------------------3-------
G|-------0----2----0---0-----0----0----0---0-----
D|-----2----0----0---0-----2----2----2-------2---
A|-----------------------3----3----3-------------
E|---0----2----3---------------------------------

e|----------------------------------------------------
B|--------------------------------------------3-------
G|-------0----2----0-0h2p0--------0----0----0---0-----
D|-----2----0----0--------4-0---2----2----2-------2---
A|----------------------------3----3----3-------------
E|---0----2----3--------------------------------------

Prechorus:
e|---0---0---0---0---0---0---------------
B|---1---1---0---0---1---1---------------
G|---2---2---0---0---2---2---------------
D|---2---2---2---2---2---2---5---4---2---
A|---0---0---2---2---0---0---5---4---2---
E|-----------0---0-----------3---2---0---
                           PM.........

Chorus:
e|-------------------------------------------
B|-------------------------------------------
G|-----------7---5---5-----------7---5---5---
D|-------2---7---5---5-------2---7---5---5---
A|-------2---5---3---3-------2---5---3---3---
E|---3-2-0---------------3-2-0---------------

Bridge:
e|---------------------------------------------
B|---------------------------------------------
G|-----------5-------------5-----7-7-7---5-----
D|---5-5-5---5-2---5-5-5---5-2---7-7-7---5-2---
A|---5-5-5---3-2---5-5-5---3-2---5-5-5---3-2---
E|---3-3-3-----0---3-3-3-----0-------------0---

e|---------------------------------------------
B|---------------------------------------------
G|-----------------------0---------------------
D|-------2----0----0---2------2----0---5-5-5---
A|-----2----0----2---3------2----0-----5-5-5---
E|---0----2----3----------0----2-------3-3-3---

Chorus:
e|------------------------------------------
B|------------------------------------------
G|-----------7---5---5-----------7---5--5---
D|-------2---7---5---5-------2---7---5--5---
A|-------2---5---3---3-------2---5---3--3---
E|---3-2-0-------------------0--------------

e|--------------------------------------------------------
B|--------------------------------------------------------
G|----------------7--5--7--------------------7--5--7------
D|-------2--4--5--7--5--7--2--------2--4--5--7--5--7--7---
A|-------2--4--5--5--3--5--2--------2--4--5--5--3--5--7---
E|---3-2-0--2--3-----------0--2-3-2-0--2--3-----------5---

Outro:
e|--------------------------------------------------------
B|--------------------------------------------------------
G|----------------7--5--7--------------------7--5--7------
D|-------2--4--5--7--5--7--2--------2--4--5--7--5--7--7---
A|-------2--4--5--5--3--5--2--------2--4--5--5--3--5--7---
E|---3-2-0--2--3-----------0--2-3-2-0--2--3-----------5---

| /  slide up
| \  slide down
| h  hammer-on
| p  pull-off
| ~  vibrato
| +  harmonic
| x  Mute note


NOTE: Great album, great album. Hope you enjoy this album
      as much as I do.Well... ...ENJOY!!!

                                         -Asa







































Добавлено: 05.12.2013
Другие материалы по этой песне:
  • Аккорды и текст

Страница создана 05.12.2013
http://primanota.ru/shinedown/leave-a-whisper-chords.htm
Привет, Гость.
Предлагаем пройти революционный курс по гитаре.
Подарок от PrimaNota.Ru, забирай!