PrimaNota.ru - самый крупный в мире бесплатный архив песенных текстов, аккордов, табулатур и нот


Shinedown - Fly From The Inside Live - таба, видео

Регистрация Запомнить меня
Войти через:  Facebook Google Twitter Vk Yandex Mail.ru

Shinedown - Fly From The Inside Live - таба, видео

Печатать
Просмотров: 241
Okay so I tabbed this out the way its played on Shinedown's live CD "Somewhere In The
Stratosphere" and in this version they have a little intro that leads up to the song. The
first two rows is just the intro part, the actual tab for the song itself will start 
after that. Basically for the intro keep repeating that and at one point hit a distortion
pedal while playing the exact same thing. The only way to really get the intro right is 
to go listen to it because its tricky.

E|---------------------------------------------------------------------------|
B|---------------------------------------------------------------------------|
G|-11--11--11--11--11-11-11/12-12-12-12-11--11--11--11--11-11-11/14-14-14-14-|
D|---------------------------------------------------------------------------|
A|-9---9---9---9---9--9--9//10-10-10-10-9---9---9---9---9--9--9//12-12-12-12-|
D|-0---0---0---0---0--0--0-----0--0--0--0---0---0---0---0--0--0-----0--0--0--|

(Play this on the last time then the feedback enters and you start the song after)
E|-------------------------------------------------------------------|
B|-------------------------------------------------------------------|
G|-11--11--11--11--11-11-11/12-12-12-12-11--11--11--11--11-11-11~~~~-|
D|-------------------------------------------------------------------|
A|-9---9---9---9---9--9--9//10-10-10-10-9---9---9---9---9--9--9~~~~~-|
D|-0---0---0---0---0--0--0-----0--0--0--0---0---0---0---0--0--0~~~~~-|

(Plays four times)
E|----------------------------------------------|
B|----------------------------------------------|
G|-11--11-11--11/12-12-12-12/14-14-10-10-9-9----|
D|---------------------------------8--8--8-8-10-|
A|-9---9--9---9//10-10-10-10/12-12-8--8--8-8-8--|
D|-0---0--0---0-----0--0--0-----0--8--8--8-8-8--|

E|-------------------------------------|
B|-------------------------------------|
G|-------------------------------------|
D|-0-0-8-7-3-0-3h5-5-0-0-8-7-3-0-3-3-3-|
A|-0-0-8-7-3-0-3h5-5-0-0-8-7-3-0-3-3-3-|
D|-0-0-8-7-3-0-3h5-5-0-0-8-7-3-0-3-3-3-|

E|---------------------------------------|
B|---------------------------------------|
G|---------------------------------------|
D|-0-0-8-7-3-0-3h5-5-0-0-8-7-3-0-3-3-3-3-|
A|-0-0-8-7-3-0-3h5-5-0-0-8-7-3-0-3-3-3-3-|
D|-0-0-8-7-3-0-3h5-5-0-0-8-7-3-0-3-3-3-3-|
                                 * * * *

E|-------------------------------------|
B|-------------------------------------|
G|-------------------------------------|
D|-0-0-8-7-3-0-3h5-5-0-0-8-7-3-0-3-3-3-|
A|-0-0-8-7-3-0-3h5-5-0-0-8-7-3-0-3-3-3-|
D|-0-0-8-7-3-0-3h5-5-0-0-8-7-3-0-3-3-3-|

E|---------------------------------------|
B|---------------------------------------|
G|---------------------------------------|
D|-0-0-8-7-3-0-3h5-5-0-0-8-7-3-0-3-3-3-3-|
A|-0-0-8-7-3-0-3h5-5-0-0-8-7-3-0-3-3-3-3-|
D|-0-0-8-7-3-0-3h5-5-0-0-8-7-3-0-3-3-3-3-|

(Keep repeating this throughout the verse)
E|----------------------------|
B|----------------------------|
G|-4---4--4--4--4/5--5--5--5--|
D|-2---2--2--2--2/3--3--3--3--|
A|-2---2--2--2--2/3--3--3--3--|
D|-2---2--2--2--2/3--3--3--3--|

(Play this on the last time)
E|--------------------------------------------|
B|--------------------------------------------|
G|-4---4--4--4--4/5--5--5--5--5--5--5--5/7--7-|
D|-2---2--2--2--2/3--3--3--3--3--3--3--3/5--5-|
A|-2---2--2--2--2/3--3--3--3--3--3--3--3/5--5-|
D|-2---2--2--2--2/3--3--3--3--3--3--3--3/5--5-|

E|---------------------------------|
B|---------------------------------|
G|---------------------------------|
D|-5-5-5-5-5-5-5-5-8-8-8-8-8-8-8-8-|
A|-5-5-5-5-5-5-5-5-8-8-8-8-8-8-8-8-|
D|-5-5-5-5-5-5-5-5-8-8-8-8-8-8-8-8-|

E|-------------------------------------|
B|-------------------------------------|
G|-------------------------------------|
D|-5-5-5-5-5-5-5-5-8-8-8-8-10-10-10-10-|
A|-5-5-5-5-5-5-5-5-8-8-8-8-10-10-10-10-|
D|-5-5-5-5-5-5-5-5-8-8-8-8-10-10-10-10-|

(Play twice for the chorus)
E|----------------------------------------------------------------------|
B|----------------------------------------------------------------------|
G|-11--11-11--11/12-12-12-12/14-14-10-10-9-9----5-5-5-5-5-5-5-5-5-5-5-5-|
D|---------------------------------8--8--8-8-10-3-3-3-3-3-3-5-5-5-5-5-5-|
A|-9---9--9---9//10-10-10-10/12-12-8--8--8-8-8--3-3-3-3-3-3-3-3-3-3-3-3-|
D|-0---0--0---0-----------0--------8--8--8-8-8--3-3-3-3-3-3-------------|

(Repeat riff, verse, and chorus)

E|-----------------------------------------------------|
B|-----------------------------------------------------|
G|-----10-10-----10-10-------------10-10-----10-10-----|
D|-----10-10-----10-10-3-3-3-3-----10-10-----10-10-0-3-|
A|-----8--8------8--8--3-3-3-3-----8--8------8--8--0-3-|
D|-0-0-------0-0-------3-3-3-3-0-0-------0-0-------0-3-|
                       * * * *
E|---------------------------------------------------|
B|---------------------------------------------------|
G|-----10-10-----10-10-------------10-10-------------|
D|-----10-10-----10-10-3-3-3-3-----10-10---6-5-0-5-3-|
A|-----8--8------8--8--3-3-3-3-----8--8----6-5-0-5-3-|
D|-0-0-------0-0-------3-3-3-3-0-0-------0-6-5-0-5-3-|
                       * * * *

E|---------------------------------------------------------|
B|---------------------------------------------------------|
G|-----10-10-----10-10-------------10-10-----10-10---------|
D|-----10-10-----10-10-3-3-3-3-----10-10-----10-10---------|
A|-----8--8------8--8--3-3-3-3-----8--8------8--8----------|
D|-0-0-------0-0-------3-3-3-3-0-0-------0-0-------0--0--0-|
                       * * * *                     •  •  •
E|-----------------------------------------|
B|-----------------------------------------|
G|-----10-10-----10-10-------------10-10---|
D|-----10-10-----10-10-3-3-3-3-----10-10---|
A|-----8--8------8--8--3-3-3-3-----8--8----|
D|-0-0-------0-0-------3-3-3-3-0-0-------0-|

(Play intro part twice)

(Play twice for chorus)
E|----------------------------------------------------------------------|
B|----------------------------------------------------------------------|
G|-11--11-11--11/12-12-12-12/14-14-10-10-9-9----5-5-5-5-5-5-5-5-5-5-5-5-|
D|---------------------------------8--8--8-8-10-3-3-3-3-3-3-5-5-5-5-5-5-|
A|-9---9--9---9//10-10-10-10/12-12-8--8--8-8-8--3-3-3-3-3-3-3-3-3-3-3-3-|
D|-0---0--0---0-----------0--------8--8--8-8-8--3-3-3-3-3-3-------------|

E|-------------------------------------------------------------------------------------|
B|-------------------------------------------------------------------------------------|
G|-12/14-14-12/14-14-12/14-12/14-14-12/14-14-12/14-12/14-14-12/14-14-12/14-5-5-5-5-5-5-|
D|-------------------------------------------------------------------------5-5-5-5-5-5-|
A|-10/12-12-10/12-12-10/12-10/12-12-10/12-12-10/12-10/12-12-10/12-12-10/12-3-3-3-3-3-3-|
D|-------------------------------------------------------------------------------------|

E|-------------------------------------------------------------------------------------|
B|-------------------------------------------------------------------------------------|
G|-12/14-14-12/14-14-12/14-12/14-14-12/14-14-12/14-12/14-14-12/14-14-12/14-5-5-5-5-5-5-|
D|-------------------------------------------------------------------------5-5-5-5-5-5-|
A|-10/12-12-10/12-12-10/12-10/12-12-10/12-12-10/12-10/12-12-10/12-12-10/12-3-3-3-3-3-3-|
D|-------------------------------------------------------------------------------------|

(Repeat Riff and that's it)
Добавлено: 20.10.2013
Другие материалы по этой песне:
  • Аккорды и текст

Страница создана 20.10.2013
http://primanota.ru/shinedown/fly-from-the-inside-live-chords.htm
Привет, Гость.
Предлагаем пройти революционный курс по гитаре.
Подарок от PrimaNota.Ru, забирай!