PrimaNota.ru - самый крупный в мире бесплатный архив песенных текстов, аккордов, табулатур и нот


Shinedown - Cry For Help - текст песни, таба, бас-таба, видео

Регистрация Запомнить меня
Войти через:  Facebook Google Twitter Vk Yandex Mail.ru

Shinedown - Cry For Help - текст песни, таба, бас-таба, видео

Печатать
Просмотров: 364
INTRO:
eb|----------------------------------------------------------------|
Bb|----------------------------------------------------------------|
Gb|----------------------------------------------------------------|
Db|--7\-----7\---7\----------------7\-----7\---7\------------------|
Ab|--5\-----5\---5\----------------5\-----5\---5\------------------|
Db|-----0-0----0----0-3h5--3h5p3------0-0----0----0-3h5--3h5p3-----|

eb|---------------------------------|
Bb|---------------------------------|
Gb|---------------------------------|
Db|---------------------------------|
Ab|---------------------------------|
Db|-6-6-6-6-6-5-3-6---6-6-6-6-5-3---|

eb|----------------------------------------------------------------|
Bb|----------------------------------------------------------------|
Gb|----------------------------------------------------------------|
Db|--7\-----7\---7\----------------7\-----7\---7\------------------|
Ab|--5\-----5\---5\---3h5--3h5p3---5\-----5\---5\---3h5--3h5p3-----|
Db|-----0-0----0----0-3h5--3h5p3------0-0----0----0-3h5--3h5p3-----|

eb|---------------------------------|
Bb|---------------------------------|
Gb|---------------------------------|
Db|---------------------------------|
Ab|-6-6-6-6-6-5-3-6---6-6-6-6-5-3---|
Db|-6-6-6-6-6-5-3-6---6-6-6-6-5-3---|

VERSE:
eb|-------------------------------------------------------------------------|
Bb|-------------------------------------------------------------------------|
Gb|-------------------------------------------------------------------------|
Db|-------------------------------------------------------------------------|
Ab|5--5--5-5-5/11b-11b--11b11b11b\10-10-5--5--5-5-5/10b-10b-10b10b10b10b10b-|
Db|-------------------------------------------------------------------------|

eb|-------------------------------------------------------------------------|
Bb|-------------------------------------------------------------------------|
Gb|-------------------------------------------------------------------------|
Db|--------------------------------------3-3-3-3-3-3-3-3-3-3-3-3-3-3-3-3----|
Ab|5--5--5-5-5/11b-11b--11b11b11b\10-10--1-1-1-1-1-1-1-1-1-1-1-1-1-1-1-1----|
Db|-------------------------------------------------------------------------|

eb|-------------------------------------------------------------------------|
Bb|-------------------------------------------------------------------------|
Gb|-------------------------------------------------------------------------|
Db|-------------------------------------------------------------------------|
Ab|5--5--5-5-5/11b-11b--11b11b11b\10-10-5--5--5-5-5/10b-10b-10b10b10b10b10b-|
Db|-------------------------------------------------------------------------|

eb|-------------------------------------------------------------------------|
Bb|-------------------------------------------------------------------------|
Gb|-------------------------------------------------------------------------|
Db|--------------------------------------3-3-3-3-3-3-3-3-3-3-3-3-3-3-3-3----|
Ab|5--5--5-5-5/11b-11b--11b11b11b\10-10--1-1-1-1-1-1-1-1-1-1-1-1-1-1-1-1----|
Db|-------------------------------------------------------------------------|

PRE CHORUS:
eb|----------------------------------------------------------------|
Bb|----------------------------------------------------------------|
Gb|----------------------------------------------------------------|
Db|--7\-----7\---7\----------------7\-----7\---7\------------------|
Ab|--5\-----5\---5\---3h5--3h5p3---5\-----5\---5\---3h5--3h5p3-----|
Db|-----0-0----0----0-3h5--3h5p3------0-0----0----0-3h5--3h5p3-----|

eb|-----------------------------------------------------------------|
Bb|-----------------------------------------------------------------|
Gb|-----------------------------------------------------------------|
Db|-----------------------------------------------------------------|
Ab|-6-6-6-6-6-5-3-6---6-6-6-6-5-3---6-6-6-6-6-5-3-6---6-6-6-6-5-3---|
Db|-6-6-6-6-6-5-3-6---6-6-6-6-5-3---6-6-6-6-6-5-3-6---6-6-6-6-5-3---|

CHORUS:
eb|------------------------------------|
Bb|------------------------------------|
Gb|------------------------------------|
Db|--7-----7-----3-----5---5-5-5-5-5---|x6
Ab|--5---x-7---x-3---x-3---3-3-3-3-3---|
Db|------x-7---x-3---x-----------------|

eb|-----------------------------------------------------------------|
Bb|-----------------------------------------------------------------|
Gb|-----------------------------------------------------------------|
Db|-3-3-3-3-3-3-3-3-3-3-3-3-3-3-3-3-2-2-2-2-2-2-2-2-2-2-2-2-2-2-2-2-|
Ab|-1-1-1-1-1-1-1-1-1-1-1-1-1-1-1-1-0-0-0-0-0-0-0-0-0-0-0-0-0-0-0-0-|
Db|-----------------------------------------------------------------|

PRE VERSE:
eb|----------------------------------------------------------------|
Bb|----------------------------------------------------------------|
Gb|----------------------------------------------------------------|
Db|--7\-----7\---7\----------------7\-----7\---7\------------------|
Ab|--5\-----5\---5\---3h5--3h5p3---5\-----5\---5\---3h5--3h5p3-----|
Db|-----0-0----0----0-3h5--3h5p3------0-0----0----0-3h5--3h5p3-----|

eb|---------------------------------|
Bb|---------------------------------|
Gb|---------------------------------|
Db|---------------------------------|
Ab|-6-6-6-6-6-5-3-6---6-6-6-6-5-3---|
Db|-6-6-6-6-6-5-3-6---6-6-6-6-5-3---|

VERSE:
eb|-------------------------------------------------------------------------|
Bb|-------------------------------------------------------------------------|
Gb|-------------------------------------------------------------------------|
Db|-------------------------------------------------------------------------|
Ab|5--5--5-5-5/11b-11b--11b11b11b\10-10-5--5--5-5-5/10b-10b-10b10b10b10b10b-|
Db|-------------------------------------------------------------------------|

eb|-------------------------------------------------------------------------|
Bb|-------------------------------------------------------------------------|
Gb|-------------------------------------------------------------------------|
Db|--------------------------------------3-3-3-3-3-3-3-3-3-3-3-3-3-3-3-3----|
Ab|5--5--5-5-5/11b-11b--11b11b11b\10-10--1-1-1-1-1-1-1-1-1-1-1-1-1-1-1-1----|
Db|-------------------------------------------------------------------------|


PRE CHORUS:
eb|----------------------------------------------------------------|
Bb|----------------------------------------------------------------|
Gb|----------------------------------------------------------------|
Db|--7\-----7\---7\----------------7\-----7\---7\------------------|
Ab|--5\-----5\---5\---3h5--3h5p3---5\-----5\---5\---3h5--3h5p3-----|
Db|-----0-0----0----0-3h5--3h5p3------0-0----0----0-3h5--3h5p3-----|

eb|-----------------------------------------------------------------|
Bb|-----------------------------------------------------------------|
Gb|-----------------------------------------------------------------|
Db|-----------------------------------------------------------------|
Ab|-6-6-6-6-6-5-3-6---6-6-6-6-5-3---6-6-6-6-6-5-3-6---6-6-6-6-5-3---|
Db|-6-6-6-6-6-5-3-6---6-6-6-6-5-3---6-6-6-6-6-5-3-6---6-6-6-6-5-3---|

CHORUS:
eb|------------------------------------|
Bb|------------------------------------|
Gb|------------------------------------|
Db|--7-----7-----3-----5---5-5-5-5-5---|x6
Ab|--5---x-7---x-3---x-3---3-3-3-3-3---|
Db|------x-7---x-3---x-----------------|

eb|-----------------------------------------------------------------|
Bb|-----------------------------------------------------------------|
Gb|-----------------------------------------------------------------|
Db|-3-3-3-3-3-3-3-3-3-3-3-3-3-3-3-3-2-2-2-2-2-2-2-2-2-2-2-2-2-2-2-2-|
Ab|-1-1-1-1-1-1-1-1-1-1-1-1-1-1-1-1-0-0-0-0-0-0-0-0-0-0-0-0-0-0-0-0-|
Db|-----------------------------------------------------------------|

BRIDGE:
eb|--------------------------------------|
Bb|--------------------------------------|
Gb|--------------------------------------|
Db|--------------------------------------|x3
Ab|-12-0-0-13-0-0-10-0-0-12-0-0-6p5-6p5--|
Db|--------------------------------------|

eb|--------------------------------------|
Bb|--------------------------------------|
Gb|--------------------------------------|
Db|-5-5-5-5-5-5-5-5-5-5-5-5-5-5-5-5------|
Ab|-3-3-3-3-3-3-3-3-3-3-3-3-3-3-3-3------|
Db|--------------------------------------|

SOLO:

Guitar One
eb|-----------------------------------------------------|
Bb|-----------------------------------------------------|
Gb|-----------------------------------------------------|
Db|-/14~----8p7-8p7/14~---8p7-8p7/14-15-12-14-8p7-8p7---|
Ab|-----------------------------------------------------|
Db|-----------------------------------------------------|

eb|-------------------------------------15h18-15h18-15h18-2020202020202020-|
Bb|------------------------------17----------------------------------------|
Gb|-12-15b-12-15b-12-15b-12h15p12----17------------------------------------|
Db|------------------------------------------------------------------------|
Ab|------------------------------------------------------------------------|
Db|------------------------------------------------------------------------|

eb|-20~------------|
Bb|----------------|
Gb|----------------|
Db|----------------|
Ab|----------------|
Db|----------------|

Guitar Two
eb|--------------------------------------|
Bb|--------------------------------------|
Gb|--------------------------------------|
Db|--------------------------------------|x3
Ab|-12-0-0-13-0-0-10-0-0-12-0-0-6p5-6p5--|
Db|--------------------------------------|

eb|---------------------------------------------------------------------|
Bb|---------------------------------------------------------------------|
Gb|---------------------------------------------------------------------|
Db|-5-5-5-5-5-5-5-5-5-5-5-5-5-5-5-5-5-5-5-5-5-5-5-5-5-5-5-5-5-5-5-5-----|
Ab|-3-3-3-3-3-3-3-3-3-3-3-3-3-3-3-3-3-3-3-3-3-3-3-3-3-3-3-3-3-3-3-3-----|
Db|---------------------------------------------------------------------|

CHORUS:
eb|------------------------------------|
Bb|------------------------------------|
Gb|------------------------------------|
Db|--7-----7-----3-----5---5-5-5-5-5---|x6
Ab|--5---x-7---x-3---x-3---3-3-3-3-3---|
Db|------x-7---x-3---x-----------------|

eb|-----------------------------------------------------------------|
Bb|-----------------------------------------------------------------|
Gb|-----------------------------------------------------------------|
Db|-3-3-3-3-3-3-3-3-3-3-3-3-3-3-3-3-2-2-2-2-2-2-2-2-2-2-2-2-2-2-2-2-|
Ab|-1-1-1-1-1-1-1-1-1-1-1-1-1-1-1-1-0-0-0-0-0-0-0-0-0-0-0-0-0-0-0-0-|
Db|-----------------------------------------------------------------|

OUTRO:
eb|----------------------------------------------------------------|
Bb|----------------------------------------------------------------|
Gb|----------------------------------------------------------------|
Db|--7\-----7\---7\----------------7\-----7\---7\------------------|
Ab|--5\-----5\---5\---3h5--3h5p3---5\-----5\---5\---3h5--3h5p3-----|
Db|-----0-0----0----0-3h5--3h5p3------0-0----0----0-3h5--3h5p3-----|

eb|---------------------------------|
Bb|---------------------------------|
Gb|---------------------------------|
Db|---------------------------------|
Ab|-6-6-6-6-6-5-3-6---6-6-6-6-5-3---|
Db|-6-6-6-6-6-5-3-6---6-6-6-6-5-3---|

eb|----------------------------------------------------------------|
Bb|----------------------------------------------------------------|
Gb|----------------------------------------------------------------|
Db|-0-----0-----0-----0------0~------pick-//////--0----------------|
Ab|-0-----0-----0-----0------0~-----///////////---0----------------|
Db|-0-----0-----0-----0------0~----/////-scrapes--0----------------|
Добавлено: 25.06.2013
Другие материалы по этой песне:

Страница создана 24.06.2013
http://primanota.ru/shinedown/cry-for-help-chords.htm
Привет, Гость.
Предлагаем пройти революционный курс по гитаре.
Подарок от PrimaNota.Ru, забирай!