PrimaNota.ru - самый крупный в мире бесплатный архив песенных текстов, аккордов, табулатур и нот


Shinedown - Nowhere Kids - таба, видео

Регистрация Запомнить меня
Войти через:  Facebook Google Twitter Vk Yandex Mail.ru

Shinedown - Nowhere Kids - таба, видео

Печатать
Просмотров: 175
Shinedown-Nowhere Kids
Amaryllis (2012)
Drop C# (C#, G#, C#, F#, A#, D#) (Db, Ab, Db, Gb, Bb, Eb) Enharmonic Tuning
Tabbed by Ryan Ryngaert

Intro
x4
D#---------------------------------|
A#---------------------------------|
F#-5-5-7-7-5-5-7-7-2-2-3-3-----5-5-|
C#-0-0-0-0-0-0-0-0-0-0-0-0-3-3-0-0-|
G#---------------------------------|
C#---------------------------------|
x2
D#-----------------------------|
A#-----------------------------|
F#---7----7----7----7-------10-|
C#--------------------8-6------|
G#---5----5----5----5-----8----|
C#-0----0----0----0------------|

Pre-Verse x2
D#-----------------------------|
A#-----------------------------|
F#---7----7----7----7-------10-|
C#--------------------8-6------|
G#---5----5----5----5-----8----|
C#-0----0----0----0------------|

Verse x4
D#-----------------------------------------------|
A#-----------------------------------------------|
F#------11-11-11-11-11-11-11-11-11-11-11-11-11---|
C#-----------------------------------------------|
G#-------9--9--9--9--9--9--9--9--9--9--9--9--9---|
C#-0-0-----------------------------------------0-|

Verse B x2
D#-------------------------------------------------------------------|
A#-------------------------------------------------------------------|
F#-------------------------------------------------------------------|
C#-7-----5/7-------5/7-7--------------7-----5/7----------------------|
G#-5-----3/5-------3/5-5-------7-5-0--5-----3/5-------7-10-7--7-5-0--|
C#---0-0------0-0--------0-0-0-7-5-0----0-0-----0-0-0-7-10-7--7-5-0--|

Pre-Chorus x2
D#--------------------|----------|
A#--------------------|----------|
F#---7----7----7----7-|-------10-|
C#--------------------|-8-6------|
G#---5----5----5----5-|-----8----|
C#-0----0----0----0---|----------|

Chorus x3
D#----------------------------------------------|
A#----------------------------------------------|
F#--------------------7----7----7----7----7-7-7-|
C#----------------------------------------------|
G#-8-8-8-8-5-5-5-5----5----5----5----5----5-5-5-|
C#-8-8-8-8-5-5-5-5--0----0----0----0----0-------|

4th time
D#-----------------------------------------|
A#-----------------------------------------|
F#-----------------------------------------|
C#-----------------------------------------|
G#-8-8-8-8-10-10-10-10-8-8-8-8-10-10-10-10-|
C#-8-8-8-8-10-10-10-10-8-8-8-8-10-10-10-10-|

Pre-Verse x2
D#-----------------------------|
A#-----------------------------|
F#---7----7----7----7-------10-|
C#--------------------8-6------|
G#---5----5----5----5-----8----|
C#-0----0----0----0------------|


Verse x4
D#-----------------------------------------------|
A#-----------------------------------------------|
F#------11-11-11-11-11-11-11-11-11-11-11-11-11---|
C#-----------------------------------------------|
G#-------9--9--9--9--9--9--9--9--9--9--9--9--9---|
C#-0-0-----------------------------------------0-|

Verse B x2
D#-------------------------------------------------------------------|
A#-------------------------------------------------------------------|
F#-------------------------------------------------------------------|
C#-7-----5/7-------5/7-7--------------7-----5/7----------------------|
G#-5-----3/5-------3/5-5-------7-5-0--5-----3/5-------7-10-7--7-5-0--|
C#---0-0------0-0--------0-0-0-7-5-0----0-0-----0-0-0-7-10-7--7-5-0--|

Pre-Chorus x2
D#--------------------|----------|
A#--------------------|----------|
F#---7----7----7----7-|-------10-|
C#--------------------|-8-6------|
G#---5----5----5----5-|-----8----|
C#-0----0----0----0---|----------|

Chorus x3
D#----------------------------------------------|
A#----------------------------------------------|
F#--------------------7----7----7----7----7-7-7-|
C#----------------------------------------------|
G#-8-8-8-8-5-5-5-5----5----5----5----5----5-5-5-|
C#-8-8-8-8-5-5-5-5--0----0----0----0----0-------|

4th time
D#-----------------------------------------|
A#-----------------------------------------|
F#-----------------------------------------|
C#-----------------------------------------|
G#-8-8-8-8-10-10-10-10-8-8-8-8-10-10-10-10-|
C#-8-8-8-8-10-10-10-10-8-8-8-8-10-10-10-10-|

Break
D#---
A#---
F#---
C#-7-
G#-5-
C#---
also
D#---------------------------------|
A#---------------------------------|
F#-5-5-7-7-5-5-7-7-2-2-3-3-----5-5-|
C#-0-0-0-0-0-0-0-0-0-0-0-0-3-3-0-0-|
G#---------------------------------|
C#---------------------------------|

Solo
D#----------------|----------tremolo-----------|
A#-15--13--11--10--10--11--13--15--17--18--20--|
F#---------------------------------------------|
C#---------------------------------------------|
G#---------------------------------------------|
C#---------------------------------------------|

Chorus x3
D#----------------------------------------------|
A#----------------------------------------------|
F#--------------------7----7----7----7----7-7-7-|
C#----------------------------------------------|
G#-8-8-8-8-5-5-5-5----5----5----5----5----5-5-5-|
C#-8-8-8-8-5-5-5-5--0----0----0----0----0-------|

4th time
D#-----------------------------------------|
A#-----------------------------------------|
F#-----------------------------------------|
C#-----------------------------------------|
G#-8-8-8-8-10-10-10-10-8-8-8-8-10-10-10-10-|
C#-8-8-8-8-10-10-10-10-8-8-8-8-10-10-10-10-|

Outro x4
D#--------------------|----------|
A#--------------------|----------|
F#---7----7----7----7-|-------10-|
C#--------------------|-8-6------|
G#---5----5----5----5-|-----8----|
C#-0----0----0----0---|----------|

That's it.
Добавлено: 31.07.2013
Другие материалы по этой песне:
  • Аккорды и текст

Страница создана 31.07.2013
http://primanota.ru/shinedown/nowhere-kids-chords.htm
Привет, Гость.
Предлагаем пройти революционный курс по гитаре.
Подарок от PrimaNota.Ru, забирай!