PrimaNota.ru - самый крупный в мире бесплатный архив песенных текстов, аккордов, табулатур и нот


Shinedown - Cyanide Sweet Tooth Suicide - текст песни, таба, бас-таба, видео

Регистрация Запомнить меня
Войти через:  Facebook Google Twitter Vk Yandex Mail.ru

Shinedown - Cyanide Sweet Tooth Suicide - текст песни, таба, бас-таба, видео

Печатать
Просмотров: 289
Уроки эстрадного вокала в Санкт-Петербурге
Авторы: Brent Smith, Dave Bassett

RATE AND COMMENT

DROP D

im unsure bout the bridge part


INTRO
                                        x4      4th time
E|---------------------------------------------|-------|
B|---------------------------------------------|-------|
G|-2-x-2-x-2-xx-2-----2-x-2-x-2----------------|-------|
D|-2-x-2-x-2-xx-2-3*--2-x-2-x-2--1-1-0h1-------|->7----|
A|-0-x-0-x-0-xx-0-----0-x-0-x-0--1-1-0h1-------|->7----|
D|-------------------------------1-1-0h1-------|->7----|

VERSE
              x3       4th time
E|-------------------|------------|
B|-------------------|------------|
G|-------------------|------------|
D|--1-1-0h1--7<<-----|-1-1-1-1----|
A|--1-1-0h1--7<<-----|-1-1-1-1----|
D|--1-1-0h1--7<<-----|-1-1-1-1----|

PRECHORUS 1
                      x2
E|-------------------------------|
B|-------------------------------|
G|-------------------3-3-3-3-----|
D|-0-0-0-0--3-3-3-3--3-3-3-3-----|
A|-0-0-0-0--3-3-3-3--1-1-1-1-----|
D|-0-0-0-0--3-3-3-3--------------|

PRECHORUS 2
                               x2
E|----------------------------------------------------|
B|----------------------------------------------------|
G|-x7-x10-x7-x10-x7-8*---x7-x10-x7-x10--7h8p7---------|
D|-x7-x10-x7-x10-x7------x7-x10-x7-x10--------h10-----|
A|----------------------------------------------------|
D|----------------------------------------------------|

CHORUS
                         x4
E|-------------------------------|
B|-------------------------------|
G|-3-3-3-3-----------5-5-5-5-----|
D|-3-3-3-3--3-3-3-3--5-5-5-5-----|
A|-1-1-1-1--3-3-3-3--3-3-3-3-----|
D|----------3-3-3-3--------------|


INTRO AGAIN
                                        x2      2nd time
E|---------------------------------------------|-------|
B|---------------------------------------------|-------|
G|-2-x-2-x-2-xx-2-----2-x-2-x-2--1-1-0h1-------|->7----|
D|-2-x-2-x-2-xx-2-3*--2-x-2-x-2--1-1-0h1-------|->7----|
A|-0-x-0-x-0-xx-0-----0-x-0-x-0--1-1-0h1-------|->7----|
D|---------------------------------------------|-------|


VERSE AGAIN

PRECHORUS 1 + 2 AGAIN

CHORUS AGAIN


INTRO AGAIN
                                        x2      2nd time
E|---------------------------------------------|-------|
B|---------------------------------------------|-------|
G|-2-x-2-x-2-xx-2-----2-x-2-x-2--1-1-0h1-------|->7----|
D|-2-x-2-x-2-xx-2-3*--2-x-2-x-2--1-1-0h1-------|->7----|
A|-0-x-0-x-0-xx-0-----0-x-0-x-0--1-1-0h1-------|->7----|
D|---------------------------------------------|-------|


BRIDGE         until last chorus 
E|----------------------------------------------------|
B|----------------------------------------------------|
G|-x7-x10-x7-------7h8-8*---x7-x10-x7-------7h8-------|
D|-x7-x10-x7--7h10----------x7-x10-x7--7h10-----10*---|
A|----------------------------------------------------|
D|----------------------------------------------------|


OUTRO
not sure but sounds like A chords bending - with random notes ...

i just improvise using the notes in the prechorus and bridge and end on a big A!!!
Добавлено: 27.08.2013
Другие материалы по этой песне:

Страница создана 05.06.2013
http://primanota.ru/shinedown/cyanide-sweet-tooth-suicide-chords.htm
Привет, Гость.
Предлагаем пройти революционный курс по гитаре.
Подарок от PrimaNota.Ru, забирай!