PrimaNota.ru - самый крупный в мире бесплатный архив песенных текстов, аккордов, табулатур и нот


She Wants Revenge - Sister - текст песни, таба, бас-таба, видео

Регистрация Запомнить меня
Войти через:  Facebook Google Twitter Vk Yandex Mail.ru

She Wants Revenge - Sister - текст песни, таба, бас-таба, видео

Печатать
Просмотров: 274
Авторы: She Wants Revenge

Awesome song. Hope I tabbed it right....


Intro
---------------------------------------|E
---------------------------------------|B
--55---55---54-------------------------|G   X 15
33---33--333---------------------------|D
---------------------------------------|A
---------------------------------------|E

At 0:53
-----------------------------------------|E
-----------------------------------------|B
00000000---------11111111----------------|G  X 1
--------33333333---------3333333333333333|D
-----------------------------------------|A
-----------------------------------------|E

---------------------------------------|E
---------------------------------------|B
--55---55---54-------------------------|G   X 7
33---33--333---------------------------|D
---------------------------------------|A
---------------------------------------|E

Chorus:

---------------------------------------------------------|E
---------------------------------------------------------|B
00000000---------11111111--------------------------------|G  X 1
--------33333333---------33333333333333333333333333333333|D
---------------------------------------------------------|A
---------------------------------------------------------|E

At 1:39
---------------------------------------|E
---------------------------------------|B
--55---55---54-------------------------|G   X 3
33---33--333---------------------------|D
---------------------------------------|A
---------------------------------------|E

At 2:03
---------------------------------------|E
---------------------------------------|B
--55---55---54-------------------------|G   X 3
33---33--333---------------------------|D
---------------------------------------|A
---------------------------------------|E

Chorus X2


At 2:42
---------------------------------------|E
---------------------------------------|B
--55---55---54-------------------------|G   X 10
33---33--333---------------------------|D
---------------------------------------|A
---------------------------------------|E

Chours X2

---------------------------------------|E
---------------------------------------|B
--55---55---54-------------------------|G   X 2
33---33--333---------------------------|D
---------------------------------------|A
---------------------------------------|E

---------------------------------------|E
---------------------------------------|B
--55---55---54-------------------------|G   X 1
33---33--333---3(let ring)-------------|D
---------------------------------------|A
---------------------------------------|E

At 4:02
---------------------------------------|E
---------------------------------------|B
22222222-11111111-3333333333333333-----|G   X 5
---------------------------------------|D
---------------------------------------|A
---------------------------------------|E

---------------------------------------|E
---------------------------------------|B
22222222-11111111----------------------|G   X 1
------------------3333333333333333-----|D
---------------------------------------|A
---------------------------------------|E

Chorus X2

And thats it.

Добавлено: 17.05.2012
Другие материалы по этой песне:
  • Аккорды и текст

Страница создана 08.03.2012
http://primanota.ru/she-wants-revenge/sister-chords.htm
Привет, Гость.
Предлагаем пройти революционный курс по гитаре.
Подарок от PrimaNota.Ru, забирай!