PrimaNota.ru - самый крупный в мире бесплатный архив песенных текстов, аккордов, табулатур и нот


She Wants Revenge - Hidden Track - текст песни, таба, видео

Регистрация Запомнить меня
Войти через:  Facebook Google Twitter Vk Yandex Mail.ru

She Wants Revenge - Hidden Track - текст песни, таба, видео

Печатать
Просмотров: 136
Hidden Track (13) - She Wants Revenge
Album: She Wants Revenge

Guitar With Slighty Distortion

|--------------||
|--------------||
|--------------||X
|--------------||2
|-0--0-2--2-3--||
|--------------||

|--------------||
|--------------||
|--------------||X
|--------------||2
|-5--5-3--3-2--||
|--------------||


In Verse
|----------|----------|----------|----------|
|----------|----------|----------|----------|
|----------|----------|----------|----------|
|----------|----------|----------|----------|
|-0--2--3--|-0--2--3--|-5--3--2--|-5--3--2--|
|----------|----------|----------|----------|


In The Climax (without voice)
|-------------------------|-------------------------||
|-------------------------|-------------------------||
|-------------------------|-------------------------||
|-------------------------|-------------------------||
|-------------------------|-------------------------||
|-5-5-5-5-5-5-5-5-5-5-5-5-|-8-8-8-8-8-8-8-8-8-8-8-8-||


|-------------------------|-------------------------||
|-------------------------|-------------------------||
|-------------------------|-------------------------||
|-------------------------|-------------------------||
|-------------------------|---------------5-5-3-3-5-||
|/2-2-2-2-2-2-2-2-2-2-2-2-|-1-1-1-1-1-1-1-----------||

In The Climax (voice)
|-------------------------|-------------------------||
|-------------------------|-------------------------||
|-------------------------|-------------------------||
|-------------------------|-------------------------||
|-------------------------|-------------------------||
|-5---5---5---5---5---5---|-8---8---8---8---8---8---||


|-------------------------|-------------------------||
|-------------------------|-------------------------||
|-------------------------|-------------------------||
|-------------------------|-------------------------||
|-------------------------|---------------5-5-3-3-5-||
|/2---2---2---2---2---2---|-1---1---1---1-----------||



---------------------------------------------
---------------------------------------------
Something "Wrong" or something else
e-mail me //  kaiser_mab@hotmail.com  //
Please rate this tab!!! for keep me working
And..."Enjoy The Silence"
Добавлено: 20.05.2012
Другие материалы по этой песне:
  • Аккорды и текст

Страница создана 20.05.2012
http://primanota.ru/she-wants-revenge/hidden-track-chords.htm
Привет, Гость.
Предлагаем пройти революционный курс по гитаре.
Подарок от PrimaNota.Ru, забирай!