PrimaNota.ru - самый крупный в мире бесплатный архив песенных текстов, аккордов, табулатур и нот


Shadows - Shazam - таба, бас-таба, видео

Регистрация Запомнить меня
Войти через:  Facebook Google Twitter Vk Yandex Mail.ru

Shadows - Shazam - таба, бас-таба, видео

Печатать
Просмотров: 151
-------------------------------------------------------------------------------
                             Shadoogie - The shadows
-------------------------------------------------------------------------------
Tabbed by:Søren Hansen
Email:Dit_vaerste_mareridt@hotmail.com

Tuning:normal




E||----------------------|-----------------------|----------------------|
B||----------------------|-----------------------|----------------------|
G||----------------------|-----------------------|--2----2----2------2--|
D||----------------------|-----------------------|--4----4----4------4--|
A||--2----2----2------2--|----2----2--2--2--2----|--2----2----2------2--|
E||----------------------|-----------------------|----------------------|


                                                      
-----------------------|-----------------------------|
-----------------------|-----------------------------|
----2----2--2--2--2----|-----------------------------|
----4----4--4--4--4----|-----------------------------|
----2----2--2--2--2----|-----------------2--2--4--4--|
-----------------------|--0--0--3h-4--4--------------|


                                                               
--------------------------------|-----------------------------|
--------------------------------|-----------------------------|
--------------------------------|-----------------------------|
--0--2--0-----------------------|-----------------------------|
-----------2--------2--------2--|-----------------2--2--4--4--|
--------------3h-4-----3h-4-----|--0--0--3h-4--4--------------|


                                                               
--------------------------------|-----------------------------|
--------------------------------|-----------------------------|
--------------------------------|-----------------------------|
--0--2--0-----------------------|-----------------2--2--4--4--|
-----------2--------2--------2--|--0--0--3h-4--4--------------|
--------------3h-4-----3h-4-----|-----------------------------|


                                                               
--------------------------------|-----------------------------|
--------------------------------|-----------------------------|
--0--2--0-----------------------|-----------------------------|
-----------2--------2--------2--|-----------------------------|
--------------3h-4-----3h-4-----|-----------------2--2--4--4--|
--------------------------------|--0--0--3h-4--4--------------|


                                                          
--------------------------------|------------------------|
--------------------------------|------------------------|
--------------------------------|--------4--2----2-------|
--0--2--0-----------------------|-------------------4----|
-----------2--------2--------2--|--2--2------------------|
--------------3h-4-----3h-4-----|------------------------|


                                                       
------------------------|-----------------------------|
------------------------|-----------------------------|
--------2--0------------|-----------------------------|
----------------2-------|-----------------------------|
--0--0-------------4----|-----------------2--2--4--4--|
------------------------|--0--0--3h-4--4--------------|


                                                                  
--------------------------------|--------------------------------|
--------------------------------|--------------------------------|
--------------------------------|--------------------------------|
--0--2--0-----------------------|--------------------------------|
-----------2--------2--------2--|--------------2--------------2--|
--------------3h-4-----3h-4-----|--0--0--3h-4-----0--0--3h-4-----|


                                                                  
--------------------------------|--------------------------------|
--------------------------------|--------------------------------|
--------------------------------|--------------------------------|
--------------------------------|--------------------------------|
--------------2--------------2--|--------------2--------------2--|
--0--0--3h-4-----0--0--3h-4-----|--0--0--3h-4-----0--0--3h-4-----|


                                                                  
--------------------------------|--------------------------------|
--------------------------------|--------------------------------|
--------------------------------|--------------------------------|
--------------------------------|--------------2--------------2--|
--------------2--------------2--|--0--0--3h-4-----0--0--3h-4-----|
--0--0--3h-4-----0--0--3h-4-----|--------------------------------|


                                                                  
--------------------------------|--------------------------------|
--------------------------------|--------------------------------|
--------------------------------|--------------------------------|
--------------2--------------2--|--------------------------------|
--0--0--3h-4-----0--0--3h-4-----|--------------2--------------2--|
--------------------------------|--0--0--3h-4-----0--0--3h-4-----|


                                                                  
--------------------------------|--------------------------------|
--------------------------------|--------------------------------|
--------------------------------|--------------------------------|
--------------------------------|--------2h-3--4--------2h-3--4--|
--------------2--------------2--|--2--2-----------2--2-----------|
--0--0--3h-4-----0--0--3h-4-----|--------------------------------|


                                                                  
--------------------------------|--------------------------------|
--------------------------------|--------------------------------|
--------------------------------|--------------------------------|
--------------2--------------2--|--------------------------------|
--0--0--3h-4-----0--0--3h-4-----|--------------2--------------2--|
--------------------------------|--0--0--3h-4-----0--0--3h-4-----|


                                                                  
----------------------------------|--12--------------------------|
----------------------12--12--14--|--------14--13--12------------|
----------------------------------|--------------------14----12--|
----------------------------------|------------------------------|
--------------2-------------------|------------------------------|
--0--0--3h-4-----0----------------|------------------------------|


                                                              
--------------12--------------|--12--------------------------|
------12--14--------12--14----|--------15----14--12----------|
--13--------------------------|----------------------14--12~-|
------------------------------|------------------------------|
------------------------------|------------------------------|
------------------------------|------------------------------|


                                                      
------------------12--|----------------------12------|
----------------------|------------------------------|
----------------------|----15--14--12------------15--|
--------------14------|----------------14------------|
----------------------|------------------------------|
----------------------|------------------------------|


                                                                
----------------12--------------|--------12--------------------|
--------------------------------|------------------------------|
--14--12------------15--14--12--|------------15--14--12--------|
----------14--------------------|--14--------------------14----|
--------------------------------|------------------------------|
--------------------------------|------------------------------|


                                                             
--12--------------------------|-----------------------------|
------------------------------|--12--0--11--0--10--0--9--0--|
------15--14--12----------14b-|-----------------------------|
------------------14----------|-----------------------------|
------------------------------|-----------------------------|
------------------------------|-----------------------------|


                                                                      
-----------------------------|--------------------|------------------|
--8--0--7--0--5--0--------5--|--------------------|------------------|
--------------------5/-6-----|--------------------|------------------|
-----------------------------|--------------------|------------------|
-----------------------------|--7-----------------|------------------|
-----------------------------|-------0------------|------------------|


                                                       
-------12----------------|----------------------------|
-------------15----12----|----------------------------|
-------------------------|--14----12------------------|
-------------------------|------------14----12--------|
-------------------------|----------------------14----|
--0----------------------|----------------------------|


                                                       
-------12----------------|----------------------------|
-------------15----12----|----------------------------|
-------------------------|--14----12------------------|
-------------------------|------------14----12--------|
-------------------------|----------------------14----|
--0----------------------|----------------------------|


                                                       
-------12----------------|----------------------------|
-------------15----12----|----------------------------|
-------------------------|--14----12------------------|
-------------------------|------------14----12--------|
-------------------------|----------------------14----|
--0----------------------|----------------------------|


                                                       
-------12----------------|----------------------------|
-------------15----12----|----------------------------|
-------------------------|--14----12------------------|
-------------------------|------------14----12--------|
-------------------------|----------------------14----|
--0----------------------|----------------------------|


                                                       
-------12----------------|----------------------------|
-------------15----12----|----------------------------|
-------------------------|--14----12------------------|
-------------------------|------------14----12--------|
-------------------------|----------------------14----|
--0----------------------|----------------------------|


                                                                              
-------12----------------|----------------------------|----------------------
-------------15----12----|----------------------------|----------------------
-------------------------|--14----12------------------|----------------------
-------------------------|------------14----12--------|----------------------
-------------------------|----------------------14----|--2----2----2------2--
--0----------------------|----------------------------|----------------------


                                                                       
-----------------------|----------------------|-----------------------|
-----------------------|----------------------|-----------------------|
-----------------------|--2----2----2------2--|----2----2--2--2--2----|
-----------------------|--4----4----4------4--|----4----4--4--4--4----|
----2----2--2--2--2----|--2----2----2------2--|----2----2--2--2--2----|
-----------------------|----------------------|-----------------------|


                                        
-------------------|------------------||
-------------------|------------------||
-------------------|------------------||
-------------------|------------------||
-------------------|------------------||
--0~---------------|------------------||
Добавлено: 08.04.2012
Другие материалы по этой песне:

Страница создана 08.04.2012
http://primanota.ru/shadows/shazam-chords.htm
Привет, Гость.
Предлагаем пройти революционный курс по гитаре.
Подарок от PrimaNota.Ru, забирай!