PrimaNota.ru - самый крупный в мире бесплатный архив песенных текстов, аккордов, табулатур и нот


Shadows - Back Home - таба, бас-таба, видео

Регистрация Запомнить меня
Войти через:  Facebook Google Twitter Vk Yandex Mail.ru

Shadows - Back Home - таба, бас-таба, видео

Печатать
Просмотров: 112
BACK HOME

As recorded by The Shadows
(From the 1961 Double Album KON-TIKI 1958-1961 )

Music by Hank Marvin, Bruce Welch, JetHarris & Jim Goff

Transcribed by Slowhand


Gtr I (E A D G B E) - 'Bruce Welch - Electric Guitar'
Gtr II (E A D G B E) - 'Hank Marvin - Electric Guitar'


  Q=136
 4/4
  Gtr I
  W          W          W          W
|----------|----------|----------|------|
|----------|----------|----------|------|
|----------|----------|----------|------|
|----------|----------|----------|------|
|----------|----------|----------|------|
|----------|----------|----------|------|


                                        $
  E
  E S S E E E E E E   E S S E E E E E E
|-0-0-0-0-0-0-0-0-0-|-0-0-0-0-0-0-0-0-0-||
|-0-0-0-2-0-0-0-2-0-|-0-0-0-2-0-0-0-2-0-||
|-1-1-1-1-1-1-1-1-1-|-1-1-1-1-1-1-1-1-1-||
|-2-2-2-2-2-2-2-2-2-|-2-2-2-2-2-2-2-2-2-||
|-2-2-2-2-2-2-2-2-2-|-2-2-2-2-2-2-2-2-2-||
|-0-0-0-0-0-0-0-0-0-|-0-0-0-0-0-0-0-0-0-||
|
| Gtr II
| W                   H         Q   Q
|-------------------|-------------------||
|-------------------|-------------------||
|-------------------|-------------------||
|-------------------|-------------------||
|-------------------|---------------2---||
|-------------------|-------------------||


  E
  E S S E E E E E E   E S S E E E E E E
|-0-0-0-0-0-0-0-0-0-|-0-0-0-0-0-0-0-0-0--|
|-0-0-0-2-0-0-0-2-0-|-0-0-0-2-0-0-0-2-0--|
|-1-1-1-1-1-1-1-1-1-|-1-1-1-1-1-1-1-1-1--|
|-2-2-2-2-2-2-2-2-2-|-2-2-2-2-2-2-2-2-2--|
|-2-2-2-2-2-2-2-2-2-|-2-2-2-2-2-2-2-2-2--|
|-0-0-0-0-0-0-0-0-0-|-0-0-0-0-0-0-0-0-0--|
|
| H         Q   Q     H         Q   Q
|-------------------|--------------------|
|-------------------|--------------------|
|-----------4---1---|--------------------|
|-2-----------------|-2---------1---0----|
|-------------------|--------------------|
|-------------------|--------------------|


  A                       Am
  E S S E E E E   E   E   E  S S E E E E E E
|-0-0-0-2-0-0-0---2---0-|-0--0-0-2-0-0-0-2-0-|
|-2-2-2-2-2-2-2---2---2-|-1--1-1-1-1-1-1-1-1-|
|-2-2-2-2-2-2-2---2---2-|-2--2-2-2-2-2-2-2-2-|
|-2-2-2-2-2-2-2---2---2-|-2--2-2-2-2-2-2-2-2-|
|-0-0-0-0-0-0-0---0---0-|-0--0-0-0-0-0-0-0-0-|
|-----------------------|--------------------|
|
|           |---3---|
| H         Q   Q   Q     H.             E E
|-----------------------|--------------------|
|-----------------------|--------------------|
|-----------------------|--------------------|
|-----------2---4---2---|--------------------|
|-4---------------------|-3----------------4-|
|-----------------------|--------------------|


  E                         B7
  E S S E E  E  E   E   E   E S S E E E E   E   E
|-0-0-0-0-0--0--0---0---0-|-2-2-2-4-2-2-2---4---2-|
|-0-0-0-2-0--0--0---2---0-|-0-0-0-0-0-0-0---0---0-|
|-1-1-1-1-1--1--1---1---1-|-2-2-2-2-2-2-2---2---2-|
|-2-2-2-2-2--2--2---2---2-|-1-1-1-1-1-1-1---1---1-|
|-2-2-2-2-2--2--2---2---2-|-2-2-2-2-2-2-2---2---2-|
|-0-0-0-0-0--0--0---0---0-|-----------------------|
|
|            |---3----|               |---3---|
| H         +Q    Q   Q     E E   Q   Q   Q   Q
|-------------------------|-----------------------|
|-------------------------|---------------0-------|
|---------------------1---|-----------1-------1---|
|-----------------2-------|-4-3---4---------------|
|-2---------(2)-----------|-----------------------|
|-------------------------|-----------------------|


  E                    B7
  E  S S E E E E E E   E S S E E  E  E E E
|-0--0-0-0-0-0-0-0-0-|-2-2-2-4-2--2--2-4-2-||
|-0--0-0-2-0-0-0-2-0-|-0-0-0-0-0--0--0-0-0-||
|-1--1-1-1-1-1-1-1-1-|-2-2-2-2-2--2--2-2-2-||
|-2--2-2-2-2-2-2-2-2-|-1-1-1-1-1--1--1-1-1-||
|-2--2-2-2-2-2-2-2-2-|-2-2-2-2-2--2--2-2-2-||
|-0--0-0-0-0-0-0-0-0-|---------------------||
|
| H.             E E   E E   E E +H
|--------------------|---------------------||
|------------------3-|-4-4---2-0-(0)-------||
|--------------------|-4-----2-1-(1)-------||
|-2------------------|---------------------||
|--------------------|---------------------||
|--------------------|---------------------||


  E
  E S S E E E E E E   E S S E E E E E E
|-0-0-0-0-0-0-0-0-0-|-0-0-0-0-0-0-0-0-0--|
|-0-0-0-2-0-0-0-2-0-|-0-0-0-2-0-0-0-2-0--|
|-1-1-1-1-1-1-1-1-1-|-1-1-1-1-1-1-1-1-1--|
|-2-2-2-2-2-2-2-2-2-|-2-2-2-2-2-2-2-2-2--|
|-2-2-2-2-2-2-2-2-2-|-2-2-2-2-2-2-2-2-2--|
|-0-0-0-0-0-0-0-0-0-|-0-0-0-0-0-0-0-0-0--|
|
| H         Q   Q     H         Q   Q
|-------------------|--------------------|
|-----------0-------|--------------------|
|---------------1---|--------------------|
|-2-----------------|-2---------1---0----|
|-------------------|--------------------|
|-------------------|--------------------|


  A                       Am
  E S S E E E E   E   E   E  S S E E E E E E
|-0-0-0-2-0-0-0---2---0-|-0--0-0-2-0-0-0-2-0-|
|-2-2-2-2-2-2-2---2---2-|-1--1-1-1-1-1-1-1-1-|
|-2-2-2-2-2-2-2---2---2-|-2--2-2-2-2-2-2-2-2-|
|-2-2-2-2-2-2-2---2---2-|-2--2-2-2-2-2-2-2-2-|
|-0-0-0-0-0-0-0---0---0-|-0--0-0-0-0-0-0-0-0-|
|-----------------------|--------------------|
|
|           |---3---|
| H         Q   Q   Q     H.             Q
|-----------------------|--------------------|
|-----------------------|--------------------|
|-----------------------|--------------------|
|-----------2---4---2---|----------------2---|
|-4---------------------|-3------------------|
|-----------------------|--------------------|


                                       To Coda
  E                   B7
  E S S E E E E E E   E S S E E  E  E   E   E
|-0-0-0-0-0-0-0-0-0-|-2-2-2-4-2--2--2---4---2---|
|-0-0-0-2-0-0-0-2-0-|-0-0-0-0-0--0--0---0---0---|
|-1-1-1-1-1-1-1-1-1-|-2-2-2-2-2--2--2---2---2---|
|-2-2-2-2-2-2-2-2-2-|-1-1-1-1-1--1--1---1---1---|
|-2-2-2-2-2-2-2-2-2-|-2-2-2-2-2--2--2---2---2---|
|-0-0-0-0-0-0-0-0-0-|---------------------------|
|
|                                |---3----|
| H         Q   Q     E E   Q   +Q    Q   Q
|-------------------|---------------------------|
|-------------------|---------------------------|
|---------------1---|---------------------------|
|-----------2-------|-4-3---4---(4)---6---4-----|
|-2-----------------|---------------------------|
|-------------------|---------------------------|


  E
  E S S E E E E E E    E  S S E E E E E E
|-0-0-0-0-0-0-0-0-0-|--0--0-0-0-0-0-0-0-0-||
|-0-0-0-2-0-0-0-2-0-|--0--0-0-2-0-0-0-2-0-||
|-1-1-1-1-1-1-1-1-1-|--1--1-1-1-1-1-1-1-1-||
|-2-2-2-2-2-2-2-2-2-|--2--2-2-2-2-2-2-2-2-||
|-2-2-2-2-2-2-2-2-2-|--2--2-2-2-2-2-2-2-2-||
|-0-0-0-0-0-0-0-0-0-|--0--0-0-0-0-0-0-0-0-||
|
| W                   +Q      Q   H
|-------------------|---------------------||
|-------------------|---------------------||
|-------------------|---------------------||
|-2-----------------|-(2)-----------------||
|-------------------|---------------------||
|-------------------|---------------------||


  A
  E S S   E E E E E E   E S S   E E E E E E
|-0-0-0---2-0-0-0-2-0-|-0-0-0---2-0-0-0-2-0--|
|-2-2-2---2-2-2-2-2-2-|-2-2-2---2-2-2-2-2-2--|
|-2-2-2---2-2-2-2-2-2-|-2-2-2---2-2-2-2-2-2--|
|-2-2-2---2-2-2-2-2-2-|-2-2-2---2-2-2-2-2-2--|
|-0-0-0---0-0-0-0-0-0-|-0-0-0---0-0-0-0-0-0--|
|---------------------|----------------------|
|
| Q     a Q   Q   Q     Q     a Q   Q   Q
|---------------------|----------------------|
|---------------------|----------------------|
|-------1s2-----------|-------1s2------------|
|-------------4---2---|-------------4---2----|
|---------------------|----------------------|
|---------------------|----------------------|


  E             A             E
  E S   S E   E E E   E   E   E S S E E E E E E
|-0-0---0-0---0-0-0---2---0-|-0-0-0-0-0-0-0-0-0-|
|-0-0---0-2---0-2-2---2---2-|-0-0-0-2-0-0-0-2-0-|
|-1-1---1-1---1-2-2---2---2-|-1-1-1-1-1-1-1-1-1-|
|-2-2---2-2---2-2-2---2---2-|-2-2-2-2-2-2-2-2-2-|
|-2-2---2-2---2-0-0---0---0-|-2-2-2-2-2-2-2-2-2-|
|-0-0---0-0---0-------------|-0-0-0-0-0-0-0-0-0-|
|
| |----3----|   |---3---|
| Q   Q     Q   Q   Q   Q     W
|---------------------------|-------------------|
|-----0---------------------|-------------------|
|-1---------1---------------|-------------------|
|---------------4---2-------|-2-----------------|
|-----------------------4---|-------------------|
|---------------------------|-------------------|


  A                        F#7
  E     S  S E E E E E E   E     S  S E E E E E E
|-0-----0--0-2-0-0-0-2-0-|-2-----2--2-2-2-2-2-2-2---|
|-2-----2--2-2-2-2-2-2-2-|-2-----2--2-2-2-2-2-2-2---|
|-2-----2--2-2-2-2-2-2-2-|-3-----3--3-3-3-3-3-3-3---|
|-2-----2--2-2-2-2-2-2-2-|-2-----2--2-2-2-2-2-2-2---|
|-0-----0--0-0-0-0-0-0-0-|-4-----4--4-4-4-4-4-4-4---|
|------------------------|-2-----2--2-2-2-2-2-2-2---|
|
| E a a Q.       Q   Q     E a a Q.       Q   Q
|------------------------|--------------------------|
|------------------------|--------------------------|
|---2p1h2----------------|---3p2h3--------1---------|
|----------------4---2---|--------------------4-----|
|------------------------|--------------------------|
|------------------------|--------------------------|


  B7                                         E
  E S S E E E  E E E   E S S E E E E E  E    E  S S E  E E E  E E
|-2-2-2-4-2-2--2-4-2-|-2-2-2-4-2-2-2-4--2-||-0--0-0-0--0-0-0--0-0-|
|-0-0-0-0-0-0--0-0-0-|-0-0-0-0-0-0-0-0--0-||-0--0-0-2--0-0-0--2-0-|
|-2-2-2-2-2-2--2-2-2-|-2-2-2-2-2-2-2-2--2-||-1--1-1-1--1-1-1--1-1-|
|-1-1-1-1-1-1--1-1-1-|-1-1-1-1-1-1-1-1--1-||-2--2-2-2--2-2-2--2-2-|
|-2-2-2-2-2-2--2-2-2-|-2-2-2-2-2-2-2-2--2-||-2--2-2-2--2-2-2--2-2-|
|--------------------|--------------------||-0--0-0-0--0-0-0--0-0-|
|
| E E   E E Q.     E   E E   Q   Q   Q       E  E   E  E Q    Q
|--------------------|--------------------||----------------------|
|---4-----4-2------2-|-4-4---2------------||---12-----10-9---10---|
|---4-----4-2------2-|-4-4---2---4---2/---||---13-----11-9---11---|
|--------------------|-----------6---4/---||----------------------|
|--------------------|--------------------||----------------------|
|--------------------|--------------------||----------------------|


                         F#7
  E S S  E E  E  E E E   E  S S E E E E E E    E  S S  E  E E E E E
|-0-0-0--0-0--0--0-0-0-|-2--2-2-2-2-2-2-2-2-|--2--2-2--2--2-2-2-2-2-|
|-0-0-0--2-0--0--0-2-0-|-2--2-2-2-2-2-2-2-2-|--2--2-2--2--2-2-2-2-2-|
|-1-1-1--1-1--1--1-1-1-|-3--3-3-3-3-3-3-3-3-|--3--3-3--3--3-3-3-3-3-|
|-2-2-2--2-2--2--2-2-2-|-2--2-2-2-2-2-2-2-2-|--2--2-2--2--2-2-2-2-2-|
|-2-2-2--2-2--2--2-2-2-|-4--4-4-4-4-4-4-4-4-|--4--4-4--4--4-4-4-4-4-|
|-0-0-0--0-0--0--0-0-0-|-2--2-2-2-2-2-2-2-2-|--2--2-2--2--2-2-2-2-2-|
|
| E E    E E +H          E  E   E E Q   Q      E  E    H.
|-7--------------------|----9-----7-6---7---|--9s=8s===9------------|
|-9-----10-9-(9)-------|---11-----9-7---9---|-11s10s==11------------|
|-------11-9-(9)-------|--------------------|-----------------------|
|---9------------------|--------------------|-----------------------|
|----------------------|--------------------|-----------------------|
|----------------------|--------------------|-----------------------|


  B7                                                      E
  E  S S  E  E  E  E  E  E   E S S E  E  E E  E    E      E E Q  H
|-2--2-2--4--2--2--2--4--2-|-2-2-2-4--2--2-2--4----2----|-0-----------|
|-0--0-0--0--0--0--0--0--0-|-0-0-0-0--0--0-0--0----0----|-0-----------|
|-2--2-2--2--2--2--2--2--2-|-2-2-2-2--2--2-2--2----2----|-1-----------|
|-1--1-1--1--1--1--1--1--1-|-1-1-1-1--1--1-1--1----1----|-2-----------|
|-2--2-2--2--2--2--2--2--2-|-2-2-2-2--2--2-2--2----2----|-2-----------|
|--------------------------|----------------------------|-0-----------|
|
|                                             |---3---|
| E  E    E  E  E  E  E  E   E E   E  E  Q    E  E    E   E E Q  H
|---14------14-12-12----11-|-9-9------------------------|-------------|
|--------16----------12----|-------9-10-12---10-11---12-|-9-----------|
|--------------------------|----------------------------|-9-----------|
|--------------------------|----------------------------|-------------|
|--------------------------|----------------------------|-------------|
|--------------------------|----------------------------|-------------|


                 E
  W              E S S E E E E E E   E S S E E E E E E
|-------------||-0-0-0-0-0-0-0-0-0-|-0-0-0-0-0-0-0-0-0-|
|-------------||-0-0-0-2-0-0-0-2-0-|-0-0-0-2-0-0-0-2-0-|
|-------------||-1-1-1-1-1-1-1-1-1-|-1-1-1-1-1-1-1-1-1-|
|-------------||-2-2-2-2-2-2-2-2-2-|-2-2-2-2-2-2-2-2-2-|
|-------------||-2-2-2-2-2-2-2-2-2-|-2-2-2-2-2-2-2-2-2-|
|-------------||-0-0-0-0-0-0-0-0-0-|-0-0-0-0-0-0-0-0-0-|
|
|         TPTP   TP        TP  TP    TP        TP  TP
| H    Q  E E    H         Q   Q     H         Q   Q
|-----------4-||-7-----------------|-------------------|
|---------5---||-----------9-------|-----------5-------|
|-------------||---------------9---|-7-------------7---|
|-------------||-------------------|-------------------|
|-------------||-------------------|-------------------|
|-------------||-------------------|-------------------|


  A                       Am
  E S S E E E E   E   E   E S S E E E E E E
|-0-0-0-2-0-0-0---2---0-|-0-0-0-2-0-0-0-2-0-|
|-2-2-2-2-2-2-2---2---2-|-1-1-1-1-1-1-1-1-1-|
|-2-2-2-2-2-2-2---2---2-|-2-2-2-2-2-2-2-2-2-|
|-2-2-2-2-2-2-2---2---2-|-2-2-2-2-2-2-2-2-2-|
|-0-0-0-0-0-0-0---0---0-|-0-0-0-0-0-0-0-0-0-|
|-----------------------|-------------------|
|
| TP        TP  TP  TP    TP
|           |---3---|
| H         Q   Q   Q     W
|-----------------------|-------------------|
|-----------5---7---5---|-------------------|
|-6---------------------|-5-----------------|
|-----------------------|-------------------|
|-----------------------|-------------------|
|-----------------------|-------------------|


  E                   B7
  E S S E E E E E E   E S S E E E E E E
|-0-0-0-0-0-0-0-0-0-|-2-2-2-4-2-2-2-4-2--|
|-0-0-0-2-0-0-0-2-0-|-0-0-0-0-0-0-0-0-0--|
|-1-1-1-1-1-1-1-1-1-|-2-2-2-2-2-2-2-2-2--|
|-2-2-2-2-2-2-2-2-2-|-1-1-1-1-1-1-1-1-1--|
|-2-2-2-2-2-2-2-2-2-|-2-2-2-2-2-2-2-2-2--|
|-0-0-0-0-0-0-0-0-0-|--------------------|
|
| TP        TP  TP    TP        TPTPTPTP
| H         Q   Q     H         E E E E
|---------------4---|-2---------4-5-4-5--|
|-----------5-------|--------------------|
|-4-----------------|--------------------|
|-------------------|--------------------|
|-------------------|--------------------|
|-------------------|--------------------|


  E                    B7
  E  S S E E E E E E   E  S S E E E E E E    E S S E E E E E E
|-0--0-0-0-0-0-0-0-0-|-2--2-2-4-2-2-2-4-2-||-0-0-0-0-0-0-0-0-0-|
|-0--0-0-2-0-0-0-2-0-|-0--0-0-0-0-0-0-0-0-||-0-0-0-2-0-0-0-2-0-|
|-1--1-1-1-1-1-1-1-1-|-2--2-2-2-2-2-2-2-2-||-1-1-1-1-1-1-1-1-1-|
|-2--2-2-2-2-2-2-2-2-|-1--1-1-1-1-1-1-1-1-||-2-2-2-2-2-2-2-2-2-|
|-2--2-2-2-2-2-2-2-2-|-2--2-2-2-2-2-2-2-2-||-2-2-2-2-2-2-2-2-2-|
|-0--0-0-0-0-0-0-0-0-|--------------------||-0-0-0-0-0-0-0-0-0-|
|
| TP             TP    TP             TP     TP        TP  TP
| H.             Q     H.             Q      H         Q   Q
|-4--------------3---|-2------------------||-7---------4-------|
|--------------------|----------------5---||---------------7---|
|--------------------|--------------------||-------------------|
|--------------------|--------------------||-------------------|
|--------------------|--------------------||-------------------|
|--------------------|--------------------||-------------------|


  E                   A                           Am
  E S S E E E E E E   E S   S E   E E E   E   E   E S S E E E E E E
|-0-0-0-0-0-0-0-0-0-|-0-0---0-2---0-0-0---2---0-|-0-0-0-2-0-0-0-2-0--|
|-0-0-0-2-0-0-0-2-0-|-2-2---2-2---2-2-2---2---2-|-1-1-1-1-1-1-1-1-1--|
|-1-1-1-1-1-1-1-1-1-|-2-2---2-2---2-2-2---2---2-|-2-2-2-2-2-2-2-2-2--|
|-2-2-2-2-2-2-2-2-2-|-2-2---2-2---2-2-2---2---2-|-2-2-2-2-2-2-2-2-2--|
|-2-2-2-2-2-2-2-2-2-|-0-0---0-0---0-0-0---0---0-|-0-0-0-0-0-0-0-0-0--|
|-0-0-0-0-0-0-0-0-0-|---------------------------|--------------------|
|
| TP        TP  TP    TP  TP    TP  TP  TP  TP    TPTP  TP  TP  TP
|                     |----3----|   |---3---|
| H         Q   Q     Q   Q     Q   Q   Q   Q     E E   Q   Q   Q
|-------------------|---------------------------|--------------------|
|-5---------7---5---|---------------5-----------|-----------5---7----|
|-------------------|-6---------6-------6-------|-5-----5------------|
|-------------------|-----7-----------------7---|---7----------------|
|-------------------|---------------------------|--------------------|
|-------------------|---------------------------|--------------------|


  E                   B7                  E
  E S S E E E E E E   E S S E E E E E E   E  S S E  E E  E E  E
|-0-0-0-0-0-0-0-0-0-|-2-2-2-4-2-2-2-4-2-|-0--0-0-0--0-0--0-0--0-|
|-0-0-0-2-0-0-0-2-0-|-0-0-0-0-0-0-0-0-0-|-0--0-0-2--0-0--0-2--0-|
|-1-1-1-1-1-1-1-1-1-|-2-2-2-2-2-2-2-2-2-|-1--1-1-1--1-1--1-1--1-|
|-2-2-2-2-2-2-2-2-2-|-1-1-1-1-1-1-1-1-1-|-2--2-2-2--2-2--2-2--2-|
|-2-2-2-2-2-2-2-2-2-|-2-2-2-2-2-2-2-2-2-|-2--2-2-2--2-2--2-2--2-|
|-0-0-0-0-0-0-0-0-0-|-------------------|-0--0-0-0--0-0--0-0--0-|
|
| TP        TP  TP    TP        TP  TP
| H         Q   Q     H         Q   Q     E  E   E  E E  E E  E
|-----------7-------|-------------------|-----------------------|
|-9-------------9---|-7---------9---7---|-----------------------|
|-------------------|-------------------|-9-11---9--------------|
|-------------------|-------------------|----------11-9-11-9----|
|-------------------|-------------------|--------------------11-|
|-------------------|-------------------|-----------------------|


                         A
   E  S S E E E E E E    E S S   E E E E E E
|--0--0-0-0-0-0-0-0-0-||-0-0-0---2-0-0-0-2-0-|
|--0--0-0-2-0-0-0-2-0-||-2-2-2---2-2-2-2-2-2-|
|--1--1-1-1-1-1-1-1-1-||-2-2-2---2-2-2-2-2-2-|
|--2--2-2-2-2-2-2-2-2-||-2-2-2---2-2-2-2-2-2-|
|--2--2-2-2-2-2-2-2-2-||-0-0-0---0-0-0-0-0-0-|
|--0--0-0-0-0-0-0-0-0-||---------------------|
|
|  H.             Q      Q     a Q   Q   Q
|---------------------||---------------------|
|---------------------||---------------------|
|---------------------||-------1s2-----------|
|---------------------||-------------4---2---|
|---------------------||---------------------|
|-12------------------||---------------------|


                        E
  E S S   E E E E E E   E S   S E   E E E   E   E
|-0-0-0---2-0-0-0-2-0-|-0-0---0-0---0-0-0---0---0-|
|-2-2-2---2-2-2-2-2-2-|-0-0---0-2---0-0-0---2---0-|
|-2-2-2---2-2-2-2-2-2-|-1-1---1-1---1-1-1---1---1-|
|-2-2-2---2-2-2-2-2-2-|-2-2---2-2---2-2-2---2---2-|
|-0-0-0---0-0-0-0-0-0-|-2-2---2-2---2-2-2---2---2-|
|---------------------|-0-0---0-0---0-0-0---0---0-|
|
|                       |----3----|   |---3---|
| Q     a Q   Q   Q     Q   Q     Q   Q   Q   Q
|---------------------|---------------------------|
|---------------------|-----0---------------------|
|-------1s2-----------|-1---------1---------------|
|-------------4---2---|---------------4---2-------|
|---------------------|-----------------------4---|
|---------------------|---------------------------|


  E                   A
  E S S E E E E E E   E     S  S E E E  E   E  E
|-0-0-0-0-0-0-0-0-0-|-0-----0--0-2-0-0--0---2--0---|
|-0-0-0-2-0-0-0-2-0-|-2-----2--2-2-2-2--2---2--2---|
|-1-1-1-1-1-1-1-1-1-|-2-----2--2-2-2-2--2---2--2---|
|-2-2-2-2-2-2-2-2-2-|-2-----2--2-2-2-2--2---2--2---|
|-2-2-2-2-2-2-2-2-2-|-0-----0--0-0-0-0--0---0--0---|
|-0-0-0-0-0-0-0-0-0-|------------------------------|
|
| W                   E a a Q.       E.   S E.   S
|-------------------|------------------------------|
|-------------------|------------------------------|
|-------------------|---2p1h2----------------------|
|-2-----------------|----------------4----2-4----2-|
|-------------------|------------------------------|
|-------------------|------------------------------|


  F#7                            B7
  E     S  S E E E  E   E  E     E S S E E E E E E
|-2-----2--2-2-2-2--2---2--2---|-2-2-2-4-2-2-2-4-2---|
|-2-----2--2-2-2-2--2---2--2---|-0-0-0-0-0-0-0-0-0---|
|-3-----3--3-3-3-3--3---3--3---|-2-2-2-2-2-2-2-2-2---|
|-2-----2--2-2-2-2--2---2--2---|-1-1-1-1-1-1-1-1-1---|
|-4-----4--4-4-4-4--4---4--4---|-2-2-2-2-2-2-2-2-2---|
|-2-----2--2-2-2-2--2---2--2---|---------------------|
|
| E a a Q.       E.   S E.   S   Q     E E E E E E
|------------------------------|---------------------|
|------------------------------|---------3-4-4-2-4---|
|---3p2h3----------------------|---------3-4-4-2-4---|
|----------------6----4-6----4-|---------------------|
|------------------------------|---------------------|
|------------------------------|---------------------|


                         E
   E  S S E E E E E E    E S S E E E E E E   E S S  E E  E  E E E
|--2--2-2-4-2-2-2-4-2-||-0-0-0-0-0-0-0-0-0-|-0-0-0--0-0--0--0-0-0-|
|--0--0-0-0-0-0-0-0-0-||-0-0-0-2-0-0-0-2-0-|-0-0-0--2-0--0--0-2-0-|
|--2--2-2-2-2-2-2-2-2-||-1-1-1-1-1-1-1-1-1-|-1-1-1--1-1--1--1-1-1-|
|--1--1-1-1-1-1-1-1-1-||-2-2-2-2-2-2-2-2-2-|-2-2-2--2-2--2--2-2-2-|
|--2--2-2-2-2-2-2-2-2-||-2-2-2-2-2-2-2-2-2-|-2-2-2--2-2--2--2-2-2-|
|---------------------||-0-0-0-0-0-0-0-0-0-|-0-0-0--0-0--0--0-0-0-|
|
| +E  E   Q   Q   Q      E E   E E Q   Q     E E    E E +H
|---------------------||---7-----5-4---5---|-7--------------------|
|-(4)-4---2-----------||---9-----7-5---7---|-9-----10-9-(9)-------|
|-(4)-4---2---4---2---||-------------------|-------11-9-(9)-------|
|-------------6---4---||-------------------|---9------------------|
|---------------------||-------------------|----------------------|
|---------------------||-------------------|----------------------|


  F#7                                             B7
  E  S S E E E E E E    E  S S  E E   E  E E  E    E  S S  E E  E E  E  E
|-2--2-2-2-2-2-2-2-2-|--2--2-2--2-2---2--2-2--2-|--2--2-2--4-2--2-2--4--2-|
|-2--2-2-2-2-2-2-2-2-|--2--2-2--2-2---2--2-2--2-|--0--0-0--0-0--0-0--0--0-|
|-3--3-3-3-3-3-3-3-3-|--3--3-3--3-3---3--3-3--3-|--2--2-2--2-2--2-2--2--2-|
|-2--2-2-2-2-2-2-2-2-|--2--2-2--2-2---2--2-2--2-|--1--1-1--1-1--1-1--1--1-|
|-4--4-4-4-4-4-4-4-4-|--4--4-4--4-4---4--4-4--4-|--2--2-2--2-2--2-2--2--2-|
|-2--2-2-2-2-2-2-2-2-|--2--2-2--2-2---2--2-2--2-|-------------------------|
|
| E  E   E E Q   Q      E  E    Q    +Q.      E    E  E    Q    Q    E  E
|----9-----7-6---7---|--9--8----9----(9)-----13-|-14-14---12---11---12-11-|
|---11-----9-7---9---|-11-10---11---(11)-----15-|-16-16---14---12---14-12-|
|--------------------|--------------------------|-------------------------|
|--------------------|--------------------------|-------------------------|
|--------------------|--------------------------|-------------------------|
|--------------------|--------------------------|-------------------------|


                               D.S. al Coda
    E  S S  E E E E  E E   E E Q  H      W
|---2--2-2--4-2-2-2--4-2-|-0-----------|-------||
|---0--0-0--0-0-0-0--0-0-|-0-----------|-------||
|---2--2-2--2-2-2-2--2-2-|-1-----------|-------||
|---1--1-1--1-1-1-1--1-1-|-2-----------|-------||
|---2--2-2--2-2-2-2--2-2-|-2-----------|-------||
|------------------------|-0-----------|-------||
|
|  +Q       Q   Q    Q     E E Q  H      W
|-(11)------9---7--------|-------------|-------||
|-(12)-----10---9---10---|-9-----------|-------||
|-------------------11---|-9-----------|-------||
|------------------------|-------------|-------||
|------------------------|-------------|-------||
|------------------------|-------------|-------||


  &
  E                   B7
  E S S E E E E E E   E  S S E E  E  E E E
|-0-0-0-0-0-0-0-0-0-|-2--2-2-4-2--2--2-4-2-||
|-0-0-0-2-0-0-0-2-0-|-0--0-0-0-0--0--0-0-0-||
|-1-1-1-1-1-1-1-1-1-|-2--2-2-2-2--2--2-2-2-||
|-2-2-2-2-2-2-2-2-2-|-1--1-1-1-1--1--1-1-1-||
|-2-2-2-2-2-2-2-2-2-|-2--2-2-2-2--2--2-2-2-||
|-0-0-0-0-0-0-0-0-0-|----------------------||
|
| W                   E.   S E E +H
|-------------------|----------------------||
|-------------------|----------------------||
|-------------------|-2----4-2-4-(4)-------||
|-2-----------------|----------------------||
|-------------------|----------------------||
|-------------------|----------------------||


  E
  E S S E E E E E E   E S S E E E E E E
|-0-0-0-0-0-0-0-0-0-|-0-0-0-0-0-0-0-0-0--|
|-0-0-0-2-0-0-0-2-0-|-0-0-0-2-0-0-0-2-0--|
|-1-1-1-1-1-1-1-1-1-|-1-1-1-1-1-1-1-1-1--|
|-2-2-2-2-2-2-2-2-2-|-2-2-2-2-2-2-2-2-2--|
|-2-2-2-2-2-2-2-2-2-|-2-2-2-2-2-2-2-2-2--|
|-0-0-0-0-0-0-0-0-0-|-0-0-0-0-0-0-0-0-0--|
|
| H         Q   Q     H         Q   Q
|-------------------|--------------------|
|-----------0-------|--------------------|
|---------------1---|--------------------|
|-2-----------------|-2---------1---0----|
|-------------------|--------------------|
|-------------------|--------------------|


  A                       Am
  E S S E E E E   E   E   E  S S E E E E E E
|-0-0-0-2-0-0-0---2---0-|-0--0-0-2-0-0-0-2-0-|
|-2-2-2-2-2-2-2---2---2-|-1--1-1-1-1-1-1-1-1-|
|-2-2-2-2-2-2-2---2---2-|-2--2-2-2-2-2-2-2-2-|
|-2-2-2-2-2-2-2---2---2-|-2--2-2-2-2-2-2-2-2-|
|-0-0-0-0-0-0-0---0---0-|-0--0-0-0-0-0-0-0-0-|
|-----------------------|--------------------|
|
|           PM------|
|           |---3---|
| H         Q   Q   Q     H.             Q
|-----------------------|--------------------|
|-----------------------|--------------------|
|-----------------------|--------------------|
|-----------2---4---2---|----------------2---|
|-4---------------------|-3------------------|
|-----------------------|--------------------|


  E                   B7
  E S S E E E E E E   E S S E E  E  E   E   E
|-0-0-0-0-0-0-0-0-0-|-2-2-2-4-2--2--2---4---2---*|
|-0-0-0-2-0-0-0-2-0-|-0-0-0-0-0--0--0---0---0---*|
|-1-1-1-1-1-1-1-1-1-|-2-2-2-2-2--2--2---2---2---*|
|-2-2-2-2-2-2-2-2-2-|-1-1-1-1-1--1--1---1---1---*|
|-2-2-2-2-2-2-2-2-2-|-2-2-2-2-2--2--2---2---2---*|
|-0-0-0-0-0-0-0-0-0-|---------------------------*|
|
|                                |---3----|
| H         Q   Q     E E   Q   +Q    Q   Q
|-------------------|---------------------------*|
|-------------------|---------------------------*|
|---------------1---|---------------------------*|
|-----------2-------|-4-3---4---(4)---6---4-----*|
|-2-----------------|---------------------------*|
|-------------------|---------------------------*|


Duration Legend
---------------
W - whole; H - half; Q - quarter; E - 8th; S - 16th; T - 32nd; X - 64th; a - acciaccatura
+ - note tied to previous; . - note dotted; .. - note double dotted
Uncapitalized letters represent notes that are staccato (1/2 duration)
Irregular groupings are notated above the duration line
Duration letters will always appear directly above the note/fret number it represents the
duration for.  Duration letters with no fret number below them represent rests.  Multi-
bar rests are notated in the form Wxn, where n is the number of bars to rest for.  Low
melody durations appear below the staff

Tablature Legend
----------------
 h   - hammer-on
 p   - pull-off
 b   - bend
 pb  - pre-bend
 r   - bend release (if no number after the r, then release immediately)
 /\  - slide into or out of (from/to "nowhere")
 s   - legato slide
 S   - shift slide
  - natural harmonic
[n]  - artificial harmonic
n(n) - tapped harmonic
 ~   - vibrato
 tr  - trill
 T   - tap
 TP  - trem. picking
 PM  - palm muting
\n/  - tremolo bar dip; n = amount to dip
 \n  - tremolo bar down
 n/  - tremolo bar up
/n\  - tremolo bar inverted dip
 =   - hold bend; also acts as connecting device for hammers/pulls
 <>  - volume swell (louder/softer)
 x   - on rhythm slash represents muted slash
 o   - on rhythm slash represents single note slash

Misc Legend
-----------
 |  - bar
||  - double bar
||o - repeat start
o|| - repeat end
*|  - double bar (ending)
 :  - bar (freetime)
 $  - Segno
 &  - Coda
Tempo markers -  = BPM(8/16=s8/s16), where s8 = swing 8ths, s16 = swing 16ths
Добавлено: 17.05.2015
Другие материалы по этой песне:

Страница создана 29.06.2012
http://primanota.ru/shadows/back-home-chords.htm
Привет, Гость.
Предлагаем пройти революционный курс по гитаре.
Подарок от PrimaNota.Ru, забирай!