PrimaNota.ru - самый крупный в мире бесплатный архив песенных текстов, аккордов, табулатур и нот


Shadows - Rise And Fall Of Flingel Bunt - таба, бас-таба, видео

Регистрация Запомнить меня
Войти через:  Facebook Google Twitter Vk Yandex Mail.ru

Shadows - Rise And Fall Of Flingel Bunt - таба, бас-таба, видео

Печатать
Просмотров: 377
          The Rise and fall of Flingel Bunt
                   By The Shadows

Tabbed by:Phil Martin
Email:prmarto@mpx.com.au
October 2006

This is fairly easy and it's great fun to play.

I made this TAB using the Final Tour DVD( a fantastic DVD),
and the record version.
Anyhow... Here's my take on the great classic!

                     Intro:
  
     C5             F5  Eb5
e|------------------------------------------------------|
B|------------------------------------------------------|
G|------------------------------------------------------| X3
D|---5---5----------10--8----5---5----------------------| 
A|---3---3----------8---6----3---3----------------------|
E|------------------------------------------------------|
                 
                                             C    
e|------------------------------------------------------|
B|------------------------------------------------------|
G|------------------------------------------------------|
D|------------------------------------------------------|
A|---8/10--8/10--8/10-10-------88-----66-----3----------|
E|------------------------------------------------------|

     C           F              C
e|------------------------------------------------------|
B|------------------------------------------------------|
G|---/55--3---------------------------------------------|
D|----------5---/5--------1--3--------------------------|
A|------------------/33---------/3----1h3---------------|
E|------------------------------------------------------|
     /55 = Slide up to 5, and pick 5 only once.   
     1h3, could also be a slide instead here I guess.

    C              F                C
e|------------------------------------------------------|
B|------------------------------------------------------|
G|-----/55--3-------------------------------------------|
D|------------5---/5---------1--3-----------------------|
A|--3------------------/33---------/3----1h3------------|
E|------------------------------------------------------|


This bar below is from the DVD, different from the record
          G                  F               C
e|------------------------------------------------------|
B|----------------6-8-6---------------------------------|
G|-----3-5-----/7-------7---7\5--/5-3-------------------|
D|--/5---------------------------------0--3--5----------|
A|------------------------------------------------------|
E|------------------------------------------------------|
 
  Ok, the Drums come in now while the guitar takes a rest.

 We go up an octave here.

             Let's get into it!
    
    C              F                   C                                       
e|------/88---------------------------------------------|
B|----------11-8--/8------------------------------------|
G|------------------------------8--10-------------------| X2
D|--10------------------/1010---------/10---8h10--------|
A|------------------------------------------------------|
E|------------------------------------------------------|
                    
            G                    F                  C
e|--------------8----8----------------------------------|
B|------11-13-----11---11-8--------8--------------------|
G|--/12------------------------/10-----8h10p8-8---------|
D|-----------------------------------------------8-10---|
A|------------------------------------------------------|
E|------------------------------------------------------|

      Drums once again, and wait for your great solo

                 Here we go!...  The Solo:
We get a great view of this on the DVD. And it's an amazing
raunchy solo. However, I do the record version here. The DVD
Solo is a lot more complex and I couldn't TAB it. The rec ver
is a lot more tame and simpler. I still like it though!


   F        
e|---------13---------13h15p13-13--13-------------------|
B|--13—16-----16----------------------16----------------|
G|------------------------------------------------------|
D|------------------------------------------------------|
A|------------------------------------------------------|
E|------------------------------------------------------|
    
   C        
e|------------------------------------------------------|
B|--------------------11h13p11-11-11--------------------|
G|-----13--15-13---------------------13-----------------|
D|--15--------------------------------------------------|
A|------------------------------------------------------|
E|------------------------------------------------------|

   F          
e|-----------13-------------13b--13---------------------|
B|--13—16b------16----13-16---------16------------------|
G|------------------------------------------------------|
D|------------------------------------------------------|
A|------------------------------------------------------|
E|------------------------------------------------------|
 
                Use big bends on this bar below
   G     
e|----------13----------13---15b-15b--13--13------------|
B|--13--15b---15b---15b-----------------15--------------|
G|------------------------------------------------------|
D|------------------------------------------------------|
A|------------------------------------------------------|
E|------------------------------------------------------|


      C            F                    C
e|------/88---------------------------------------------|
B|----------11-8--/8------------------------------------|
G|------------------------------8--10-------------------|
D|----------------------/1010---------/10---------------|
A|------------------------------------------------------|
E|------------------------------------------------------|
 
   The bends in the Bar below are small 
   C                               F
e|------------------------------------------------------|
B|---------------8------------------8-------------------|
G|------8-10-10b-----------8-10-10b---------------------|
D|---10-----------------10------------------------------|
A|------------------------------------------------------|
E|------------------------------------------------------|

   I use really big bends in this Bar below.
  
                             Eb     F              C
e|----------11b-13b--11----11-11------------------------|
B|--11b-13b-------------13-13-13---11--8----------------|
G|--------------------------------------10--/10-8-------|
D|-------------------------------------------------10---|
A|------------------------------------------------------|
E|------------------------------------------------------|

            
       12/13 = pick 12, then slide to 13.
       /1212 = same as you have been doing before.

   C         G                 F                C
e|-----11-11-13b-11b------------------------------------|
B|--13---------------13--12/13-11—----------------------|
G|--------------------------------/1212--10-------------|
D|-------------------------------------------8-10-------|
A|------------------------------------------------------|
E|------------------------------------------------------|

              Lets rock'n roll
      Just your typical rock pattern here
C 
E|-----------------------------------------------------|
B|-----------------------------------------------------|
G|-----------------------------------------------------|
D|-----------------------------------------------------| X2
A|-10--10--12--10--10--10--12--10--10------------------|
E|-8---8---8---8---8---8---8---8---8-------------------|

 F
E|-----------------------------------------------------|
B|-----------------------------------------------------|
G|-----------------------------------------------------|
D|-10--10--12--10--10--10--12--10--10------------------|
A|-8---8---8---8---8---8---8---8---8-------------------|
E|-----------------------------------------------------|

C 
E|-----------------------------------------------------|
B|-----------------------------------------------------|
G|-----------------------------------------------------|
D|-----------------------------------------------------|
A|-10--10--12--10--10--10--12--10--10------------------|
E|-8---8---8---8---8---8---8---8---8-------------------|
      
e|------------------------------------------------------|
B|------------------------------------------------------|
G|------------------------------------------------------|
D|------------------------------------------------------|
A|---8/10--8/10--8/10-10-------88-----66-----3----------|
E|------------------------------------------------------|

    C              F                C
e|------------------------------------------------------|
B|------------------------------------------------------|
G|-----/55--3-------------------------------------------|
D|------------5---/5---------1--3-----------------------|
A|--3------------------/33---------/3----1h3------------|
E|------------------------------------------------------|
  ....etc etc

And that should do you! If you're got this far then I'm
Sure you can finish her off from here.

h = hammer on    p = pull off
b = bend         r = release bend
\ = slide        ~ = let ring


Добавлено: 24.02.2012
Другие материалы по этой песне:

Страница создана 24.02.2012
http://primanota.ru/shadows/rise-and-fall-of-flingel-bunt-chords.htm
Привет, Гость.
Предлагаем пройти революционный курс по гитаре.
Подарок от PrimaNota.Ru, забирай!